ISO-10303-21;
HEADER;
FILE_DESCRIPTION (( 'STEP AP203' ),
    '1' );
FILE_NAME ('326696.step',
    '2021-11-22T10:26:22',
    ( '' ),
    ( '' ),
    'SwSTEP 2.0',
    'SolidWorks 2019',
    '' );
FILE_SCHEMA (( 'CONFIG_CONTROL_DESIGN' ));
ENDSEC;

DATA;
#1 = ORIENTED_EDGE ( 'NONE', *, *, #98, .T. ) ;
#2 = CALENDAR_DATE ( 2021, 22, 11 ) ;
#3 = APPROVAL ( #11, 'UNSPECIFIED' ) ;
#4 = ORIENTED_EDGE ( 'NONE', *, *, #83, .T. ) ;
#5 = FACE_OUTER_BOUND ( 'NONE', #79, .T. ) ;
#6 = CC_DESIGN_PERSON_AND_ORGANIZATION_ASSIGNMENT ( #121, #155, ( #183 ) ) ;
#7 = DIRECTION ( 'NONE',  ( -3.491481338843133355E-15, 1.224646799147353207E-16, -1.000000000000000000 ) ) ;
#8 = VERTEX_POINT ( 'NONE', #162 ) ;
#9 = CARTESIAN_POINT ( 'NONE',  ( 8.919949032018623563E-15, -3.128696954238519563E-16, 2.554774941164129842 ) ) ;
#10 = ADVANCED_FACE ( 'NONE', ( #63 ), #60, .F. ) ;
#11 = APPROVAL_STATUS ( 'not_yet_approved' ) ;
#12 = CALENDAR_DATE ( 2021, 22, 11 ) ;
#13 = APPROVAL_ROLE ( '' ) ;
#14 = SHAPE_DEFINITION_REPRESENTATION ( #130, #64 ) ;
#15 = ORIENTED_EDGE ( 'NONE', *, *, #180, .T. ) ;
#16 = APPROVAL_PERSON_ORGANIZATION ( #187, #3, #200 ) ;
#17 = EDGE_LOOP ( 'NONE', ( #110 ) ) ;
#18 = DIRECTION ( 'NONE',  ( -3.491481338843133355E-15, 1.224646799147353207E-16, -1.000000000000000000 ) ) ;
#19 = VERTEX_POINT ( 'NONE', #149 ) ;
#20 = LOCAL_TIME ( 11, 26, 22.00000000000000000, #56 ) ;
#21 = CARTESIAN_POINT ( 'NONE',  ( 8.919949032018621985E-15, -7.386380110457803505E-16, 2.554774941164129398 ) ) ;
#22 = FACE_BOUND ( 'NONE', #190, .T. ) ;
#23 = DIRECTION ( 'NONE',  ( -4.275831445896958607E-31, -1.000000000000000000, -1.224646799147353207E-16 ) ) ;
#24 = AXIS2_PLACEMENT_3D ( 'NONE', #185, #147, #97 ) ;
#25 = CC_DESIGN_APPROVAL ( #157, ( #148 ) ) ;
#26 = CARTESIAN_POINT ( 'NONE',  ( 1.326762908760390423E-13, 8.998558695971078593E-33, 38.00000000000000000 ) ) ;
#27 = PERSON_AND_ORGANIZATION ( #114, #76 ) ;
#28 = CIRCLE ( 'NONE', #134, 1.500000000000000000 ) ;
#29 = APPLICATION_PROTOCOL_DEFINITION ( 'international standard', 'config_control_design', 1994, #62 ) ;
#30 = EDGE_CURVE ( 'NONE', #133, #133, #57, .T. ) ;
#31 = EDGE_CURVE ( 'NONE', #33, #33, #181, .T. ) ;
#32 = CLOSED_SHELL ( 'NONE', ( #73, #104, #143, #10 ) ) ;
#33 = VERTEX_POINT ( 'NONE', #34 ) ;
#34 = CARTESIAN_POINT ( 'NONE',  ( -1.774439837234213840E-32, 0.02499999999999997710, -5.082197683525802034E-18 ) ) ;
#35 = CARTESIAN_POINT ( 'NONE',  ( -1.421698849354226281E-32, 4.986648291209303502E-34, -4.071907340697091448E-18 ) ) ;
#36 = CONICAL_SURFACE ( 'NONE', #197, 1.499999999999999556, 0.5235987755982927094 ) ;
#37 = DIRECTION ( 'NONE',  ( 3.491481338843133355E-15, -1.224646799147353207E-16, 1.000000000000000000 ) ) ;
#38 = AXIS2_PLACEMENT_3D ( 'NONE', #35, #193, #101 ) ;
#39 = DIRECTION ( 'NONE',  ( 1.000000000000000000, 0.0000000000000000000, 0.0000000000000000000 ) ) ;
#40 = LOCAL_TIME ( 11, 26, 22.00000000000000000, #58 ) ;
#41 = COORDINATED_UNIVERSAL_TIME_OFFSET ( 1, 0, .AHEAD. ) ;
#42 = PERSON_AND_ORGANIZATION_ROLE ( 'creator' ) ;
#43 = MANIFOLD_SOLID_BREP ( 'Corps-Déplacer/Copier1[1]', #32 ) ;
#44 = DATE_AND_TIME ( #2, #156 ) ;
#45 = PERSON_AND_ORGANIZATION ( #114, #76 ) ;
#46 = AXIS2_PLACEMENT_3D ( 'NONE', #96, #71, #55 ) ;
#47 = ORIENTED_EDGE ( 'NONE', *, *, #30, .T. ) ;
#48 = ORIENTED_EDGE ( 'NONE', *, *, #180, .F. ) ;
#49 = AXIS2_PLACEMENT_3D ( 'NONE', #109, #191, #39 ) ;
#50 = CARTESIAN_POINT ( 'NONE',  ( 1.316288464743861212E-13, -4.616918432785521081E-15, 37.69999999999999574 ) ) ;
#51 = DIRECTION ( 'NONE',  ( 4.275831445896958607E-31, 1.000000000000000000, 1.224646799147353207E-16 ) ) ;
#52 = CARTESIAN_POINT ( 'NONE',  ( -2.843397698708452561E-32, 9.973296582418607005E-34, -8.143814681394182895E-18 ) ) ;
#53 = FACE_OUTER_BOUND ( 'NONE', #80, .T. ) ;
#54 = UNCERTAINTY_MEASURE_WITH_UNIT (LENGTH_MEASURE( 1.000000000000000082E-05 ), #131, 'distance_accuracy_value', 'NONE');
#55 = DIRECTION ( 'NONE',  ( 4.275831445896959482E-31, 1.000000000000000000, 1.224646799147353207E-16 ) ) ;
#56 = COORDINATED_UNIVERSAL_TIME_OFFSET ( 1, 0, .AHEAD. ) ;
#57 = CIRCLE ( 'NONE', #173, 1.499999999999999556 ) ;
#58 = COORDINATED_UNIVERSAL_TIME_OFFSET ( 1, 0, .AHEAD. ) ;
#59 =( NAMED_UNIT ( * ) SI_UNIT ( $, .STERADIAN. ) SOLID_ANGLE_UNIT ( ) );
#60 = PLANE ( 'NONE',  #192 ) ;
#61 = CC_DESIGN_PERSON_AND_ORGANIZATION_ASSIGNMENT ( #154, #124, ( #148 ) ) ;
#62 = APPLICATION_CONTEXT ( 'configuration controlled 3d designs of mechanical parts and assemblies' ) ;
#63 = FACE_OUTER_BOUND ( 'NONE', #174, .T. ) ;
#64 = ADVANCED_BREP_SHAPE_REPRESENTATION ( '326696', ( #43, #120, #49 ), #106 ) ;
#65 = LOCAL_TIME ( 11, 26, 22.00000000000000000, #142 ) ;
#66 = FACE_BOUND ( 'NONE', #159, .T. ) ;
#67 = CC_DESIGN_DATE_AND_TIME_ASSIGNMENT ( #44, #170, ( #99 ) ) ;
#68 = PRODUCT_RELATED_PRODUCT_CATEGORY ( 'detail', '', ( #183 ) ) ;
#69 = DIRECTION ( 'NONE',  ( 3.491481338843133355E-15, -1.224646799147353207E-16, 1.000000000000000000 ) ) ;
#70 = LOCAL_TIME ( 11, 26, 22.00000000000000000, #78 ) ;
#71 = DIRECTION ( 'NONE',  ( -3.491481338843133355E-15, 1.224646799147353207E-16, -1.000000000000000000 ) ) ;
#72 = MECHANICAL_CONTEXT ( 'NONE', #62, 'mechanical' ) ;
#73 = ADVANCED_FACE ( 'NONE', ( #115 ), #136, .F. ) ;
#74 = APPROVAL_ROLE ( '' ) ;
#75 = CLOSED_SHELL ( 'NONE', ( #89, #135, #195 ) ) ;
#76 = ORGANIZATION ( 'UNSPECIFIED', 'UNSPECIFIED', '' ) ;
#77 = DATE_AND_TIME ( #12, #20 ) ;
#78 = COORDINATED_UNIVERSAL_TIME_OFFSET ( 1, 0, .AHEAD. ) ;
#79 = EDGE_LOOP ( 'NONE', ( #144 ) ) ;
#80 = EDGE_LOOP ( 'NONE', ( #202 ) ) ;
#81 = CARTESIAN_POINT ( 'NONE',  ( 8.919949032018623563E-15, -3.128696954238519563E-16, 2.554774941164129842 ) ) ;
#82 = DIRECTION ( 'NONE',  ( 0.0000000000000000000, -1.000000000000000000, 0.0000000000000000000 ) ) ;
#83 = EDGE_CURVE ( 'NONE', #161, #161, #152, .T. ) ;
#84 = CARTESIAN_POINT ( 'NONE',  ( 8.919949032018623563E-15, 1.499999999999999334, 2.554774941164129842 ) ) ;
#85 = CARTESIAN_POINT ( 'NONE',  ( 1.316288464743861212E-13, -4.616918432785521081E-15, 37.69999999999999574 ) ) ;
#86 = FACE_OUTER_BOUND ( 'NONE', #160, .T. ) ;
#87 = AXIS2_PLACEMENT_3D ( 'NONE', #184, #128, #178 ) ;
#88 = CIRCLE ( 'NONE', #87, 1.200000000000000178 ) ;
#89 = ADVANCED_FACE ( 'NONE', ( #5 ), #153, .F. ) ;
#90 = APPROVAL_STATUS ( 'not_yet_approved' ) ;
#91 = CC_DESIGN_SECURITY_CLASSIFICATION ( #148, ( #111 ) ) ;
#92 = DESIGN_CONTEXT ( 'detailed design', #163, 'design' ) ;
#93 = APPROVAL_STATUS ( 'not_yet_approved' ) ;
#94 = APPLICATION_PROTOCOL_DEFINITION ( 'international standard', 'config_control_design', 1994, #163 ) ;
#95 = EDGE_LOOP ( 'NONE', ( #4 ) ) ;
#96 = CARTESIAN_POINT ( 'NONE',  ( 0.0000000000000000000, 0.0000000000000000000, 0.0000000000000000000 ) ) ;
#97 = DIRECTION ( 'NONE',  ( 0.0000000000000000000, 1.000000000000000000, 0.0000000000000000000 ) ) ;
#98 = EDGE_CURVE ( 'NONE', #8, #8, #28, .T. ) ;
#99 = PRODUCT_DEFINITION ( 'UNKNOWN', '', #111, #92 ) ;
#100 = FACE_OUTER_BOUND ( 'NONE', #17, .T. ) ;
#101 = DIRECTION ( 'NONE',  ( -4.275831445896958607E-31, -1.000000000000000000, -1.224646799147353207E-16 ) ) ;
#102 = DIRECTION ( 'NONE',  ( -3.491481338843133355E-15, 1.224646799147353207E-16, -1.000000000000000000 ) ) ;
#103 = AXIS2_PLACEMENT_3D ( 'NONE', #21, #69, #23 ) ;
#104 = ADVANCED_FACE ( 'NONE', ( #86, #53 ), #118, .T. ) ;
#105 = CC_DESIGN_PERSON_AND_ORGANIZATION_ASSIGNMENT ( #27, #137, ( #99 ) ) ;
#106 =( GEOMETRIC_REPRESENTATION_CONTEXT ( 3 ) GLOBAL_UNCERTAINTY_ASSIGNED_CONTEXT ( ( #54 ) ) GLOBAL_UNIT_ASSIGNED_CONTEXT ( ( #131, #188, #59 ) ) REPRESENTATION_CONTEXT ( 'NONE', 'WORKASPACE' ) );
#107 = PERSON_AND_ORGANIZATION ( #114, #76 ) ;
#108 = PERSON_AND_ORGANIZATION ( #114, #76 ) ;
#109 = CARTESIAN_POINT ( 'NONE',  ( 0.0000000000000000000, 0.0000000000000000000, 0.0000000000000000000 ) ) ;
#110 = ORIENTED_EDGE ( 'NONE', *, *, #83, .F. ) ;
#111 = PRODUCT_DEFINITION_FORMATION_WITH_SPECIFIED_SOURCE ( 'ANY', '', #183, .NOT_KNOWN. ) ;
#112 = EDGE_LOOP ( 'NONE', ( #146 ) ) ;
#113 = DIRECTION ( 'NONE',  ( 0.0000000000000000000, 1.000000000000000000, 0.0000000000000000000 ) ) ;
#114 = PERSON ( 'UNSPECIFIED', 'UNSPECIFIED', 'UNSPECIFIED', ('UNSPECIFIED'), ('UNSPECIFIED'), ('UNSPECIFIED') ) ;
#115 = FACE_OUTER_BOUND ( 'NONE', #125, .T. ) ;
#116 = CC_DESIGN_APPROVAL ( #199, ( #111 ) ) ;
#117 = DIRECTION ( 'NONE',  ( -4.275831445896958607E-31, -1.000000000000000000, -1.224646799147353207E-16 ) ) ;
#118 = CYLINDRICAL_SURFACE ( 'NONE', #46, 1.499999999999999778 ) ;
#119 = AXIS2_PLACEMENT_3D ( 'NONE', #151, #179, #117 ) ;
#120 = MANIFOLD_SOLID_BREP ( 'Corps-Déplacer/Copier1[2]', #75 ) ;
#121 = PERSON_AND_ORGANIZATION ( #114, #76 ) ;
#122 = CALENDAR_DATE ( 2021, 22, 11 ) ;
#123 = PERSON_AND_ORGANIZATION ( #114, #76 ) ;
#124 = PERSON_AND_ORGANIZATION_ROLE ( 'classification_officer' ) ;
#125 = EDGE_LOOP ( 'NONE', ( #47 ) ) ;
#126 = CALENDAR_DATE ( 2021, 22, 11 ) ;
#127 = DIRECTION ( 'NONE',  ( -3.491481338843133355E-15, 1.224646799147353207E-16, -1.000000000000000000 ) ) ;
#128 = DIRECTION ( 'NONE',  ( -3.491481338843133355E-15, 1.224646799147353207E-16, -1.000000000000000000 ) ) ;
#129 = DIRECTION ( 'NONE',  ( 0.0000000000000000000, 1.000000000000000000, 0.0000000000000000000 ) ) ;
#130 = PRODUCT_DEFINITION_SHAPE ( 'NONE', 'NONE',  #99 ) ;
#131 =( LENGTH_UNIT ( ) NAMED_UNIT ( * ) SI_UNIT ( .MILLI., .METRE. ) );
#132 = CC_DESIGN_APPROVAL ( #3, ( #99 ) ) ;
#133 = VERTEX_POINT ( 'NONE', #84 ) ;
#134 = AXIS2_PLACEMENT_3D ( 'NONE', #85, #196, #129 ) ;
#135 = ADVANCED_FACE ( 'NONE', ( #22, #194 ), #36, .T. ) ;
#136 = PLANE ( 'NONE',  #119 ) ;
#137 = PERSON_AND_ORGANIZATION_ROLE ( 'creator' ) ;
#138 = DATE_AND_TIME ( #122, #40 ) ;
#139 = APPROVAL_PERSON_ORGANIZATION ( #45, #199, #74 ) ;
#140 = APPROVAL_DATE_TIME ( #138, #199 ) ;
#141 = CALENDAR_DATE ( 2021, 22, 11 ) ;
#142 = COORDINATED_UNIVERSAL_TIME_OFFSET ( 1, 0, .AHEAD. ) ;
#143 = ADVANCED_FACE ( 'NONE', ( #66, #177 ), #164, .T. ) ;
#144 = ORIENTED_EDGE ( 'NONE', *, *, #31, .T. ) ;
#145 = CC_DESIGN_PERSON_AND_ORGANIZATION_ASSIGNMENT ( #123, #42, ( #111 ) ) ;
#146 = ORIENTED_EDGE ( 'NONE', *, *, #98, .F. ) ;
#147 = DIRECTION ( 'NONE',  ( -3.491481338843133355E-15, 1.224646799147353207E-16, -1.000000000000000000 ) ) ;
#148 = SECURITY_CLASSIFICATION ( '', '', #201 ) ;
#149 = CARTESIAN_POINT ( 'NONE',  ( 1.326762908760390423E-13, 1.199999999999995515, 38.00000000000000000 ) ) ;
#150 = CARTESIAN_POINT ( 'NONE',  ( 8.919949032018623563E-15, 1.499999999999999334, 2.554774941164129842 ) ) ;
#151 = CARTESIAN_POINT ( 'NONE',  ( 8.919949032018621985E-15, -7.386380110457803505E-16, 2.554774941164129398 ) ) ;
#152 = CIRCLE ( 'NONE', #24, 1.499999999999999556 ) ;
#153 = PLANE ( 'NONE',  #38 ) ;
#154 = PERSON_AND_ORGANIZATION ( #114, #76 ) ;
#155 = PERSON_AND_ORGANIZATION_ROLE ( 'design_owner' ) ;
#156 = LOCAL_TIME ( 11, 26, 22.00000000000000000, #41 ) ;
#157 = APPROVAL ( #93, 'UNSPECIFIED' ) ;
#158 = ORIENTED_EDGE ( 'NONE', *, *, #31, .F. ) ;
#159 = EDGE_LOOP ( 'NONE', ( #15 ) ) ;
#160 = EDGE_LOOP ( 'NONE', ( #1 ) ) ;
#161 = VERTEX_POINT ( 'NONE', #150 ) ;
#162 = CARTESIAN_POINT ( 'NONE',  ( 1.316288464743861212E-13, 1.499999999999995559, 37.69999999999999574 ) ) ;
#163 = APPLICATION_CONTEXT ( 'configuration controlled 3d designs of mechanical parts and assemblies' ) ;
#164 = CONICAL_SURFACE ( 'NONE', #169, 1.500000000000000000, 0.7853981633974453924 ) ;
#165 = DIRECTION ( 'NONE',  ( 4.275831445896959482E-31, 1.000000000000000000, 1.224646799147353207E-16 ) ) ;
#166 = CC_DESIGN_PERSON_AND_ORGANIZATION_ASSIGNMENT ( #107, #171, ( #111 ) ) ;
#167 = PLANE ( 'NONE',  #103 ) ;
#168 = DATE_AND_TIME ( #126, #65 ) ;
#169 = AXIS2_PLACEMENT_3D ( 'NONE', #50, #102, #113 ) ;
#170 = DATE_TIME_ROLE ( 'creation_date' ) ;
#171 = PERSON_AND_ORGANIZATION_ROLE ( 'design_supplier' ) ;
#172 = APPROVAL_DATE_TIME ( #77, #3 ) ;
#173 = AXIS2_PLACEMENT_3D ( 'NONE', #81, #7, #198 ) ;
#174 = EDGE_LOOP ( 'NONE', ( #48 ) ) ;
#175 = APPROVAL_DATE_TIME ( #203, #157 ) ;
#176 = AXIS2_PLACEMENT_3D ( 'NONE', #52, #18, #165 ) ;
#177 = FACE_OUTER_BOUND ( 'NONE', #112, .T. ) ;
#178 = DIRECTION ( 'NONE',  ( 0.0000000000000000000, 1.000000000000000000, 0.0000000000000000000 ) ) ;
#179 = DIRECTION ( 'NONE',  ( 3.491481338843133355E-15, -1.224646799147353207E-16, 1.000000000000000000 ) ) ;
#180 = EDGE_CURVE ( 'NONE', #19, #19, #88, .T. ) ;
#181 = CIRCLE ( 'NONE', #176, 0.02499999999999997710 ) ;
#182 = CC_DESIGN_DATE_AND_TIME_ASSIGNMENT ( #168, #189, ( #148 ) ) ;
#183 = PRODUCT ( '326696', '326696', '', ( #72 ) ) ;
#184 = CARTESIAN_POINT ( 'NONE',  ( 1.326762908760390423E-13, -4.653657836759941941E-15, 38.00000000000000000 ) ) ;
#185 = CARTESIAN_POINT ( 'NONE',  ( 8.919949032018623563E-15, -3.128696954238519563E-16, 2.554774941164129842 ) ) ;
#186 = APPROVAL_PERSON_ORGANIZATION ( #108, #157, #13 ) ;
#187 = PERSON_AND_ORGANIZATION ( #114, #76 ) ;
#188 =( NAMED_UNIT ( * ) PLANE_ANGLE_UNIT ( ) SI_UNIT ( $, .RADIAN. ) );
#189 = DATE_TIME_ROLE ( 'classification_date' ) ;
#190 = EDGE_LOOP ( 'NONE', ( #158 ) ) ;
#191 = DIRECTION ( 'NONE',  ( 0.0000000000000000000, 0.0000000000000000000, 1.000000000000000000 ) ) ;
#192 = AXIS2_PLACEMENT_3D ( 'NONE', #26, #127, #51 ) ;
#193 = DIRECTION ( 'NONE',  ( 3.491481338843133355E-15, -1.224646799147353207E-16, 1.000000000000000000 ) ) ;
#194 = FACE_OUTER_BOUND ( 'NONE', #95, .T. ) ;
#195 = ADVANCED_FACE ( 'NONE', ( #100 ), #167, .T. ) ;
#196 = DIRECTION ( 'NONE',  ( -3.491481338843133355E-15, 1.224646799147353207E-16, -1.000000000000000000 ) ) ;
#197 = AXIS2_PLACEMENT_3D ( 'NONE', #9, #37, #82 ) ;
#198 = DIRECTION ( 'NONE',  ( 0.0000000000000000000, 1.000000000000000000, 0.0000000000000000000 ) ) ;
#199 = APPROVAL ( #90, 'UNSPECIFIED' ) ;
#200 = APPROVAL_ROLE ( '' ) ;
#201 = SECURITY_CLASSIFICATION_LEVEL ( 'unclassified' ) ;
#202 = ORIENTED_EDGE ( 'NONE', *, *, #30, .F. ) ;
#203 = DATE_AND_TIME ( #141, #70 ) ;
ENDSEC;
END-ISO-10303-21;
