ISO-10303-21;
HEADER;
FILE_DESCRIPTION (( 'STEP AP203' ),
    '1' );
FILE_NAME ('326695.step',
    '2021-11-22T10:26:22',
    ( '' ),
    ( '' ),
    'SwSTEP 2.0',
    'SolidWorks 2019',
    '' );
FILE_SCHEMA (( 'CONFIG_CONTROL_DESIGN' ));
ENDSEC;

DATA;
#1 = EDGE_LOOP ( 'NONE', ( #107 ) ) ;
#2 = ORIENTED_EDGE ( 'NONE', *, *, #76, .T. ) ;
#3 = PERSON_AND_ORGANIZATION ( #77, #150 ) ;
#4 = EDGE_LOOP ( 'NONE', ( #47 ) ) ;
#5 = DATE_AND_TIME ( #118, #160 ) ;
#6 = EDGE_LOOP ( 'NONE', ( #2 ) ) ;
#7 = CARTESIAN_POINT ( 'NONE',  ( 1.066969589892036630E-14, 1.124819836996392658E-32, 3.055922361726172376 ) ) ;
#8 = CARTESIAN_POINT ( 'NONE',  ( 1.066969589892036630E-14, -3.742425538730777104E-16, 3.055922361726172376 ) ) ;
#9 = DIRECTION ( 'NONE',  ( -3.491481338843133355E-15, 1.224646799147353207E-16, -1.000000000000000000 ) ) ;
#10 = CARTESIAN_POINT ( 'NONE',  ( -2.023913692933244284E-32, 7.098933619454625113E-34, -5.796719204587951241E-18 ) ) ;
#11 = CC_DESIGN_SECURITY_CLASSIFICATION ( #171, ( #24 ) ) ;
#12 = CARTESIAN_POINT ( 'NONE',  ( 1.316288464743861212E-13, 1.499999999999995559, 37.69999999999999574 ) ) ;
#13 = ADVANCED_FACE ( 'NONE', ( #94, #108 ), #191, .T. ) ;
#14 = CIRCLE ( 'NONE', #137, 1.200000000000000178 ) ;
#15 = PERSON_AND_ORGANIZATION_ROLE ( 'design_supplier' ) ;
#16 = CC_DESIGN_PERSON_AND_ORGANIZATION_ASSIGNMENT ( #135, #104, ( #171 ) ) ;
#17 = PERSON_AND_ORGANIZATION ( #77, #150 ) ;
#18 = PRODUCT_DEFINITION ( 'UNKNOWN', '', #24, #122 ) ;
#19 = COORDINATED_UNIVERSAL_TIME_OFFSET ( 1, 0, .AHEAD. ) ;
#20 = AXIS2_PLACEMENT_3D ( 'NONE', #38, #34, #70 ) ;
#21 = APPLICATION_CONTEXT ( 'configuration controlled 3d designs of mechanical parts and assemblies' ) ;
#22 = PLANE ( 'NONE',  #194 ) ;
#23 = EDGE_CURVE ( 'NONE', #196, #196, #14, .T. ) ;
#24 = PRODUCT_DEFINITION_FORMATION_WITH_SPECIFIED_SOURCE ( 'ANY', '', #37, .NOT_KNOWN. ) ;
#25 = DIRECTION ( 'NONE',  ( -4.275831445896958607E-31, -1.000000000000000000, -1.224646799147353207E-16 ) ) ;
#26 = AXIS2_PLACEMENT_3D ( 'NONE', #10, #172, #114 ) ;
#27 = DATE_AND_TIME ( #170, #198 ) ;
#28 = APPLICATION_PROTOCOL_DEFINITION ( 'international standard', 'config_control_design', 1994, #21 ) ;
#29 = APPROVAL_STATUS ( 'not_yet_approved' ) ;
#30 = CIRCLE ( 'NONE', #174, 1.500000000000000000 ) ;
#31 = EDGE_LOOP ( 'NONE', ( #117 ) ) ;
#32 = ADVANCED_FACE ( 'NONE', ( #125 ), #178, .F. ) ;
#33 = MANIFOLD_SOLID_BREP ( 'Corps-Déplacer/Copier1[1]', #153 ) ;
#34 = DIRECTION ( 'NONE',  ( -3.491481338843133355E-15, 1.224646799147353207E-16, -1.000000000000000000 ) ) ;
#35 = CIRCLE ( 'NONE', #26, 0.07500000000000003886 ) ;
#36 = DIRECTION ( 'NONE',  ( 0.0000000000000000000, 1.000000000000000000, 0.0000000000000000000 ) ) ;
#37 = PRODUCT ( '326695', '326695', '', ( #61 ) ) ;
#38 = CARTESIAN_POINT ( 'NONE',  ( 1.326762908760390423E-13, 8.998558695971078593E-33, 38.00000000000000000 ) ) ;
#39 = APPLICATION_CONTEXT ( 'configuration controlled 3d designs of mechanical parts and assemblies' ) ;
#40 = COORDINATED_UNIVERSAL_TIME_OFFSET ( 1, 0, .AHEAD. ) ;
#41 = LOCAL_TIME ( 11, 26, 22.00000000000000000, #88 ) ;
#42 = CC_DESIGN_PERSON_AND_ORGANIZATION_ASSIGNMENT ( #68, #50, ( #24 ) ) ;
#43 = DIRECTION ( 'NONE',  ( -3.491481338843133355E-15, 1.224646799147353207E-16, -1.000000000000000000 ) ) ;
#44 = AXIS2_PLACEMENT_3D ( 'NONE', #159, #180, #62 ) ;
#45 = AXIS2_PLACEMENT_3D ( 'NONE', #7, #138, #141 ) ;
#46 = APPROVAL_STATUS ( 'not_yet_approved' ) ;
#47 = ORIENTED_EDGE ( 'NONE', *, *, #87, .F. ) ;
#48 = EDGE_LOOP ( 'NONE', ( #120 ) ) ;
#49 = LOCAL_TIME ( 11, 26, 22.00000000000000000, #19 ) ;
#50 = PERSON_AND_ORGANIZATION_ROLE ( 'creator' ) ;
#51 = CC_DESIGN_DATE_AND_TIME_ASSIGNMENT ( #176, #164, ( #171 ) ) ;
#52 = SHAPE_DEFINITION_REPRESENTATION ( #158, #139 ) ;
#53 = DIRECTION ( 'NONE',  ( 3.491481338843133355E-15, -1.224646799147353207E-16, 1.000000000000000000 ) ) ;
#54 = CC_DESIGN_APPROVAL ( #124, ( #24 ) ) ;
#55 = EDGE_CURVE ( 'NONE', #99, #99, #90, .T. ) ;
#56 = DIRECTION ( 'NONE',  ( 0.0000000000000000000, 1.000000000000000000, 0.0000000000000000000 ) ) ;
#57 = CARTESIAN_POINT ( 'NONE',  ( 1.326762908760390423E-13, -4.653657836759941941E-15, 38.00000000000000000 ) ) ;
#58 = AXIS2_PLACEMENT_3D ( 'NONE', #75, #157, #110 ) ;
#59 = CARTESIAN_POINT ( 'NONE',  ( 0.0000000000000000000, 0.0000000000000000000, 0.0000000000000000000 ) ) ;
#60 = CARTESIAN_POINT ( 'NONE',  ( 1.066969589892036630E-14, 1.499999999999999556, 3.055922361726172376 ) ) ;
#61 = MECHANICAL_CONTEXT ( 'NONE', #21, 'mechanical' ) ;
#62 = DIRECTION ( 'NONE',  ( 0.0000000000000000000, -1.000000000000000000, 0.0000000000000000000 ) ) ;
#63 = CARTESIAN_POINT ( 'NONE',  ( 1.326762908760390423E-13, 1.199999999999995515, 38.00000000000000000 ) ) ;
#64 = APPROVAL_PERSON_ORGANIZATION ( #3, #124, #85 ) ;
#65 = DATE_TIME_ROLE ( 'creation_date' ) ;
#66 = EDGE_LOOP ( 'NONE', ( #189 ) ) ;
#67 = APPROVAL_ROLE ( '' ) ;
#68 = PERSON_AND_ORGANIZATION ( #77, #150 ) ;
#69 = EDGE_LOOP ( 'NONE', ( #89 ) ) ;
#70 = DIRECTION ( 'NONE',  ( 4.275831445896958607E-31, 1.000000000000000000, 1.224646799147353207E-16 ) ) ;
#71 = APPROVAL ( #98, 'UNSPECIFIED' ) ;
#72 = UNCERTAINTY_MEASURE_WITH_UNIT (LENGTH_MEASURE( 1.000000000000000082E-05 ), #129, 'distance_accuracy_value', 'NONE');
#73 = DIRECTION ( 'NONE',  ( 0.0000000000000000000, 1.000000000000000000, 0.0000000000000000000 ) ) ;
#74 = CONICAL_SURFACE ( 'NONE', #44, 1.500000000000000000, 0.4363323129985759441 ) ;
#75 = CARTESIAN_POINT ( 'NONE',  ( 1.066969589892036630E-14, -3.742425538730777104E-16, 3.055922361726172376 ) ) ;
#76 = EDGE_CURVE ( 'NONE', #111, #111, #130, .T. ) ;
#77 = PERSON ( 'UNSPECIFIED', 'UNSPECIFIED', 'UNSPECIFIED', ('UNSPECIFIED'), ('UNSPECIFIED'), ('UNSPECIFIED') ) ;
#78 = APPROVAL ( #29, 'UNSPECIFIED' ) ;
#79 = FACE_OUTER_BOUND ( 'NONE', #105, .T. ) ;
#80 = VERTEX_POINT ( 'NONE', #197 ) ;
#81 = CC_DESIGN_DATE_AND_TIME_ASSIGNMENT ( #5, #65, ( #18 ) ) ;
#82 = PERSON_AND_ORGANIZATION ( #77, #150 ) ;
#83 = APPLICATION_PROTOCOL_DEFINITION ( 'international standard', 'config_control_design', 1994, #39 ) ;
#84 =( NAMED_UNIT ( * ) SI_UNIT ( $, .STERADIAN. ) SOLID_ANGLE_UNIT ( ) );
#85 = APPROVAL_ROLE ( '' ) ;
#86 = DATE_AND_TIME ( #106, #49 ) ;
#87 = EDGE_CURVE ( 'NONE', #112, #112, #30, .T. ) ;
#88 = COORDINATED_UNIVERSAL_TIME_OFFSET ( 1, 0, .AHEAD. ) ;
#89 = ORIENTED_EDGE ( 'NONE', *, *, #23, .F. ) ;
#90 = CIRCLE ( 'NONE', #184, 1.500000000000000000 ) ;
#91 = EDGE_LOOP ( 'NONE', ( #186 ) ) ;
#92 = ORIENTED_EDGE ( 'NONE', *, *, #76, .F. ) ;
#93 = CARTESIAN_POINT ( 'NONE',  ( 1.066969589892036630E-14, 1.124819836996392658E-32, 3.055922361726172376 ) ) ;
#94 = FACE_BOUND ( 'NONE', #31, .T. ) ;
#95 = DIRECTION ( 'NONE',  ( -3.491481338843133355E-15, 1.224646799147353207E-16, -1.000000000000000000 ) ) ;
#96 = PERSON_AND_ORGANIZATION ( #77, #150 ) ;
#97 = APPROVAL_DATE_TIME ( #27, #71 ) ;
#98 = APPROVAL_STATUS ( 'not_yet_approved' ) ;
#99 = VERTEX_POINT ( 'NONE', #133 ) ;
#100 = APPROVAL_ROLE ( '' ) ;
#101 = APPROVAL_DATE_TIME ( #166, #124 ) ;
#102 = CLOSED_SHELL ( 'NONE', ( #32, #185, #142 ) ) ;
#103 = ORIENTED_EDGE ( 'NONE', *, *, #55, .T. ) ;
#104 = PERSON_AND_ORGANIZATION_ROLE ( 'classification_officer' ) ;
#105 = EDGE_LOOP ( 'NONE', ( #103 ) ) ;
#106 = CALENDAR_DATE ( 2021, 22, 11 ) ;
#107 = ORIENTED_EDGE ( 'NONE', *, *, #87, .T. ) ;
#108 = FACE_OUTER_BOUND ( 'NONE', #4, .T. ) ;
#109 = CC_DESIGN_PERSON_AND_ORGANIZATION_ASSIGNMENT ( #152, #15, ( #24 ) ) ;
#110 = DIRECTION ( 'NONE',  ( 0.0000000000000000000, 1.000000000000000000, 0.0000000000000000000 ) ) ;
#111 = VERTEX_POINT ( 'NONE', #60 ) ;
#112 = VERTEX_POINT ( 'NONE', #12 ) ;
#113 = PERSON_AND_ORGANIZATION ( #77, #150 ) ;
#114 = DIRECTION ( 'NONE',  ( 4.275831445896957731E-31, 1.000000000000000000, 1.224646799147352961E-16 ) ) ;
#115 = CALENDAR_DATE ( 2021, 22, 11 ) ;
#116 = CC_DESIGN_APPROVAL ( #71, ( #18 ) ) ;
#117 = ORIENTED_EDGE ( 'NONE', *, *, #23, .T. ) ;
#118 = CALENDAR_DATE ( 2021, 22, 11 ) ;
#119 = ADVANCED_FACE ( 'NONE', ( #79 ), #156, .F. ) ;
#120 = ORIENTED_EDGE ( 'NONE', *, *, #55, .F. ) ;
#121 = DIRECTION ( 'NONE',  ( 3.491481338843133355E-15, -1.224646799147353207E-16, 1.000000000000000000 ) ) ;
#122 = DESIGN_CONTEXT ( 'detailed design', #39, 'design' ) ;
#123 = PLANE ( 'NONE',  #20 ) ;
#124 = APPROVAL ( #46, 'UNSPECIFIED' ) ;
#125 = FACE_OUTER_BOUND ( 'NONE', #66, .T. ) ;
#126 = AXIS2_PLACEMENT_3D ( 'NONE', #140, #193, #56 ) ;
#127 = DIRECTION ( 'NONE',  ( 0.0000000000000000000, 1.000000000000000000, 0.0000000000000000000 ) ) ;
#128 = ADVANCED_FACE ( 'NONE', ( #195 ), #123, .F. ) ;
#129 =( LENGTH_UNIT ( ) NAMED_UNIT ( * ) SI_UNIT ( .MILLI., .METRE. ) );
#130 = CIRCLE ( 'NONE', #58, 1.500000000000000000 ) ;
#131 = DIRECTION ( 'NONE',  ( 4.275831445896959482E-31, 1.000000000000000000, 1.224646799147353207E-16 ) ) ;
#132 =( NAMED_UNIT ( * ) PLANE_ANGLE_UNIT ( ) SI_UNIT ( $, .RADIAN. ) );
#133 = CARTESIAN_POINT ( 'NONE',  ( 1.066969589892036630E-14, 1.499999999999999556, 3.055922361726172376 ) ) ;
#134 = APPROVAL_DATE_TIME ( #86, #78 ) ;
#135 = PERSON_AND_ORGANIZATION ( #77, #150 ) ;
#136 = FACE_OUTER_BOUND ( 'NONE', #144, .T. ) ;
#137 = AXIS2_PLACEMENT_3D ( 'NONE', #57, #167, #127 ) ;
#138 = DIRECTION ( 'NONE',  ( 3.491481338843133355E-15, -1.224646799147353207E-16, 1.000000000000000000 ) ) ;
#139 = ADVANCED_BREP_SHAPE_REPRESENTATION ( '326695', ( #33, #175, #182 ), #177 ) ;
#140 = CARTESIAN_POINT ( 'NONE',  ( 1.316288464743861212E-13, -4.616918432785521081E-15, 37.69999999999999574 ) ) ;
#141 = DIRECTION ( 'NONE',  ( -4.275831445896958607E-31, -1.000000000000000000, -1.224646799147353207E-16 ) ) ;
#142 = ADVANCED_FACE ( 'NONE', ( #136 ), #22, .T. ) ;
#143 = APPROVAL_PERSON_ORGANIZATION ( #96, #71, #100 ) ;
#144 = EDGE_LOOP ( 'NONE', ( #92 ) ) ;
#145 = FACE_OUTER_BOUND ( 'NONE', #6, .T. ) ;
#146 = LOCAL_TIME ( 11, 26, 22.00000000000000000, #188 ) ;
#147 = FACE_OUTER_BOUND ( 'NONE', #48, .T. ) ;
#148 = DIRECTION ( 'NONE',  ( 1.000000000000000000, 0.0000000000000000000, 0.0000000000000000000 ) ) ;
#149 = ADVANCED_FACE ( 'NONE', ( #192, #147 ), #161, .T. ) ;
#150 = ORGANIZATION ( 'UNSPECIFIED', 'UNSPECIFIED', '' ) ;
#151 = SECURITY_CLASSIFICATION_LEVEL ( 'unclassified' ) ;
#152 = PERSON_AND_ORGANIZATION ( #77, #150 ) ;
#153 = CLOSED_SHELL ( 'NONE', ( #119, #149, #13, #128 ) ) ;
#154 = CARTESIAN_POINT ( 'NONE',  ( 1.316288464743861212E-13, -4.616918432785521081E-15, 37.69999999999999574 ) ) ;
#155 = CC_DESIGN_PERSON_AND_ORGANIZATION_ASSIGNMENT ( #82, #162, ( #18 ) ) ;
#156 = PLANE ( 'NONE',  #45 ) ;
#157 = DIRECTION ( 'NONE',  ( -3.491481338843133355E-15, 1.224646799147353207E-16, -1.000000000000000000 ) ) ;
#158 = PRODUCT_DEFINITION_SHAPE ( 'NONE', 'NONE',  #18 ) ;
#159 = CARTESIAN_POINT ( 'NONE',  ( 1.066969589892036630E-14, -3.742425538730777104E-16, 3.055922361726172376 ) ) ;
#160 = LOCAL_TIME ( 11, 26, 22.00000000000000000, #202 ) ;
#161 = CYLINDRICAL_SURFACE ( 'NONE', #187, 1.500000000000000000 ) ;
#162 = PERSON_AND_ORGANIZATION_ROLE ( 'creator' ) ;
#163 = APPROVAL_PERSON_ORGANIZATION ( #17, #78, #67 ) ;
#164 = DATE_TIME_ROLE ( 'classification_date' ) ;
#165 = CALENDAR_DATE ( 2021, 22, 11 ) ;
#166 = DATE_AND_TIME ( #115, #41 ) ;
#167 = DIRECTION ( 'NONE',  ( -3.491481338843133355E-15, 1.224646799147353207E-16, -1.000000000000000000 ) ) ;
#168 = CC_DESIGN_APPROVAL ( #78, ( #171 ) ) ;
#169 = PRODUCT_RELATED_PRODUCT_CATEGORY ( 'detail', '', ( #37 ) ) ;
#170 = CALENDAR_DATE ( 2021, 22, 11 ) ;
#171 = SECURITY_CLASSIFICATION ( '', '', #151 ) ;
#172 = DIRECTION ( 'NONE',  ( -3.491481338843133355E-15, 1.224646799147353207E-16, -1.000000000000000000 ) ) ;
#173 = PERSON_AND_ORGANIZATION_ROLE ( 'design_owner' ) ;
#174 = AXIS2_PLACEMENT_3D ( 'NONE', #154, #9, #73 ) ;
#175 = MANIFOLD_SOLID_BREP ( 'Corps-Déplacer/Copier1[2]', #102 ) ;
#176 = DATE_AND_TIME ( #165, #146 ) ;
#177 =( GEOMETRIC_REPRESENTATION_CONTEXT ( 3 ) GLOBAL_UNCERTAINTY_ASSIGNED_CONTEXT ( ( #72 ) ) GLOBAL_UNIT_ASSIGNED_CONTEXT ( ( #129, #132, #84 ) ) REPRESENTATION_CONTEXT ( 'NONE', 'WORKASPACE' ) );
#178 = PLANE ( 'NONE',  #203 ) ;
#179 = CARTESIAN_POINT ( 'NONE',  ( -1.011956846466622142E-32, 3.549466809727312556E-34, -2.898359602293975621E-18 ) ) ;
#180 = DIRECTION ( 'NONE',  ( 3.491481338843133355E-15, -1.224646799147353207E-16, 1.000000000000000000 ) ) ;
#181 = EDGE_CURVE ( 'NONE', #80, #80, #35, .T. ) ;
#182 = AXIS2_PLACEMENT_3D ( 'NONE', #59, #183, #148 ) ;
#183 = DIRECTION ( 'NONE',  ( 0.0000000000000000000, 0.0000000000000000000, 1.000000000000000000 ) ) ;
#184 = AXIS2_PLACEMENT_3D ( 'NONE', #8, #95, #36 ) ;
#185 = ADVANCED_FACE ( 'NONE', ( #201, #145 ), #74, .T. ) ;
#186 = ORIENTED_EDGE ( 'NONE', *, *, #181, .F. ) ;
#187 = AXIS2_PLACEMENT_3D ( 'NONE', #200, #43, #131 ) ;
#188 = COORDINATED_UNIVERSAL_TIME_OFFSET ( 1, 0, .AHEAD. ) ;
#189 = ORIENTED_EDGE ( 'NONE', *, *, #181, .T. ) ;
#190 = DIRECTION ( 'NONE',  ( -4.275831445896958607E-31, -1.000000000000000000, -1.224646799147353207E-16 ) ) ;
#191 = CONICAL_SURFACE ( 'NONE', #126, 1.500000000000000000, 0.7853981633974453924 ) ;
#192 = FACE_OUTER_BOUND ( 'NONE', #1, .T. ) ;
#193 = DIRECTION ( 'NONE',  ( -3.491481338843133355E-15, 1.224646799147353207E-16, -1.000000000000000000 ) ) ;
#194 = AXIS2_PLACEMENT_3D ( 'NONE', #93, #53, #190 ) ;
#195 = FACE_OUTER_BOUND ( 'NONE', #69, .T. ) ;
#196 = VERTEX_POINT ( 'NONE', #63 ) ;
#197 = CARTESIAN_POINT ( 'NONE',  ( 1.182959891489476121E-32, 0.07500000000000003886, 3.388131789017201356E-18 ) ) ;
#198 = LOCAL_TIME ( 11, 26, 22.00000000000000000, #40 ) ;
#199 = CC_DESIGN_PERSON_AND_ORGANIZATION_ASSIGNMENT ( #113, #173, ( #37 ) ) ;
#200 = CARTESIAN_POINT ( 'NONE',  ( 0.0000000000000000000, 0.0000000000000000000, 0.0000000000000000000 ) ) ;
#201 = FACE_BOUND ( 'NONE', #91, .T. ) ;
#202 = COORDINATED_UNIVERSAL_TIME_OFFSET ( 1, 0, .AHEAD. ) ;
#203 = AXIS2_PLACEMENT_3D ( 'NONE', #179, #121, #25 ) ;
ENDSEC;
END-ISO-10303-21;
