ISO-10303-21;
HEADER;
FILE_DESCRIPTION (( 'STEP AP203' ),
    '1' );
FILE_NAME ('326694.step',
    '2021-11-22T10:26:21',
    ( '' ),
    ( '' ),
    'SwSTEP 2.0',
    'SolidWorks 2019',
    '' );
FILE_SCHEMA (( 'CONFIG_CONTROL_DESIGN' ));
ENDSEC;

DATA;
#1 = EDGE_LOOP ( 'NONE', ( #30 ) ) ;
#2 = DIRECTION ( 'NONE',  ( 4.275831445896958607E-31, 1.000000000000000000, 1.224646799147353207E-16 ) ) ;
#3 = DIRECTION ( 'NONE',  ( 0.0000000000000000000, 1.000000000000000000, 0.0000000000000000000 ) ) ;
#4 = CARTESIAN_POINT ( 'NONE',  ( 1.085688354626984594E-14, 1.124819836996392522E-32, 3.109535034738912351 ) ) ;
#5 = CARTESIAN_POINT ( 'NONE',  ( 1.085688354626984594E-14, 1.124819836996392522E-32, 3.109535034738912351 ) ) ;
#6 = ADVANCED_FACE ( 'NONE', ( #200 ), #34, .F. ) ;
#7 = DIRECTION ( 'NONE',  ( 4.275831445896958607E-31, 1.000000000000000000, 1.224646799147353207E-16 ) ) ;
#8 = AXIS2_PLACEMENT_3D ( 'NONE', #138, #42, #3 ) ;
#9 = APPROVAL_PERSON_ORGANIZATION ( #72, #135, #143 ) ;
#10 = SHAPE_DEFINITION_REPRESENTATION ( #105, #120 ) ;
#11 = DIRECTION ( 'NONE',  ( 1.000000000000000000, 0.0000000000000000000, 0.0000000000000000000 ) ) ;
#12 = DATE_AND_TIME ( #102, #91 ) ;
#13 = CIRCLE ( 'NONE', #8, 1.200000000000000178 ) ;
#14 = APPROVAL_PERSON_ORGANIZATION ( #59, #66, #48 ) ;
#15 = APPLICATION_PROTOCOL_DEFINITION ( 'international standard', 'config_control_design', 1994, #177 ) ;
#16 = ORIENTED_EDGE ( 'NONE', *, *, #166, .T. ) ;
#17 = AXIS2_PLACEMENT_3D ( 'NONE', #68, #137, #2 ) ;
#18 = APPROVAL ( #103, 'UNSPECIFIED' ) ;
#19 = EDGE_LOOP ( 'NONE', ( #16 ) ) ;
#20 = EDGE_LOOP ( 'NONE', ( #106 ) ) ;
#21 = CC_DESIGN_SECURITY_CLASSIFICATION ( #129, ( #37 ) ) ;
#22 = CARTESIAN_POINT ( 'NONE',  ( 1.085688354626984594E-14, -3.808082127129562511E-16, 3.109535034738912351 ) ) ;
#23 = FACE_BOUND ( 'NONE', #163, .T. ) ;
#24 = CC_DESIGN_PERSON_AND_ORGANIZATION_ASSIGNMENT ( #179, #29, ( #37 ) ) ;
#25 =( LENGTH_UNIT ( ) NAMED_UNIT ( * ) SI_UNIT ( .MILLI., .METRE. ) );
#26 = DIRECTION ( 'NONE',  ( -3.491481338843133355E-15, 1.224646799147353207E-16, -1.000000000000000000 ) ) ;
#27 = COORDINATED_UNIVERSAL_TIME_OFFSET ( 1, 0, .AHEAD. ) ;
#28 = APPROVAL_ROLE ( '' ) ;
#29 = PERSON_AND_ORGANIZATION_ROLE ( 'creator' ) ;
#30 = ORIENTED_EDGE ( 'NONE', *, *, #202, .T. ) ;
#31 = EDGE_LOOP ( 'NONE', ( #75 ) ) ;
#32 = ADVANCED_FACE ( 'NONE', ( #54 ), #171, .F. ) ;
#33 = CC_DESIGN_APPROVAL ( #18, ( #129 ) ) ;
#34 = PLANE ( 'NONE',  #35 ) ;
#35 = AXIS2_PLACEMENT_3D ( 'NONE', #121, #26, #7 ) ;
#36 = DIRECTION ( 'NONE',  ( -3.491481338843133355E-15, 1.224646799147353207E-16, -1.000000000000000000 ) ) ;
#37 = PRODUCT_DEFINITION_FORMATION_WITH_SPECIFIED_SOURCE ( 'ANY', '', #196, .NOT_KNOWN. ) ;
#38 = UNCERTAINTY_MEASURE_WITH_UNIT (LENGTH_MEASURE( 1.000000000000000082E-05 ), #25, 'distance_accuracy_value', 'NONE');
#39 = DIRECTION ( 'NONE',  ( 0.0000000000000000000, 1.000000000000000000, 0.0000000000000000000 ) ) ;
#40 = PLANE ( 'NONE',  #78 ) ;
#41 = EDGE_CURVE ( 'NONE', #110, #110, #70, .T. ) ;
#42 = DIRECTION ( 'NONE',  ( -3.491481338843133355E-15, 1.224646799147353207E-16, -1.000000000000000000 ) ) ;
#43 = DIRECTION ( 'NONE',  ( -3.491481338843133355E-15, 1.224646799147353207E-16, -1.000000000000000000 ) ) ;
#44 = DATE_AND_TIME ( #154, #109 ) ;
#45 = DATE_AND_TIME ( #131, #187 ) ;
#46 = DATE_TIME_ROLE ( 'classification_date' ) ;
#47 = ADVANCED_FACE ( 'NONE', ( #23, #51 ), #96, .T. ) ;
#48 = APPROVAL_ROLE ( '' ) ;
#49 = LOCAL_TIME ( 11, 26, 21.00000000000000000, #61 ) ;
#50 = ORIENTED_EDGE ( 'NONE', *, *, #202, .F. ) ;
#51 = FACE_OUTER_BOUND ( 'NONE', #20, .T. ) ;
#52 = CARTESIAN_POINT ( 'NONE',  ( 0.0000000000000000000, 0.0000000000000000000, 0.0000000000000000000 ) ) ;
#53 = DESIGN_CONTEXT ( 'detailed design', #177, 'design' ) ;
#54 = FACE_OUTER_BOUND ( 'NONE', #1, .T. ) ;
#55 = ADVANCED_FACE ( 'NONE', ( #126, #80 ), #123, .T. ) ;
#56 = DIRECTION ( 'NONE',  ( -4.275831445896958607E-31, -1.000000000000000000, -1.224646799147353207E-16 ) ) ;
#57 = AXIS2_PLACEMENT_3D ( 'NONE', #114, #84, #56 ) ;
#58 = ORGANIZATION ( 'UNSPECIFIED', 'UNSPECIFIED', '' ) ;
#59 = PERSON_AND_ORGANIZATION ( #60, #58 ) ;
#60 = PERSON ( 'UNSPECIFIED', 'UNSPECIFIED', 'UNSPECIFIED', ('UNSPECIFIED'), ('UNSPECIFIED'), ('UNSPECIFIED') ) ;
#61 = COORDINATED_UNIVERSAL_TIME_OFFSET ( 1, 0, .AHEAD. ) ;
#62 = CC_DESIGN_DATE_AND_TIME_ASSIGNMENT ( #153, #46, ( #129 ) ) ;
#63 = CLOSED_SHELL ( 'NONE', ( #183, #194, #55, #6 ) ) ;
#64 = EDGE_LOOP ( 'NONE', ( #181 ) ) ;
#65 = DIRECTION ( 'NONE',  ( 3.491481338843133355E-15, -1.224646799147353207E-16, 1.000000000000000000 ) ) ;
#66 = APPROVAL ( #88, 'UNSPECIFIED' ) ;
#67 = DIRECTION ( 'NONE',  ( 0.0000000000000000000, 1.000000000000000000, 0.0000000000000000000 ) ) ;
#68 = CARTESIAN_POINT ( 'NONE',  ( -9.549558314589943416E-33, 3.349534162799945171E-34, -2.735102206719538795E-18 ) ) ;
#69 = PERSON_AND_ORGANIZATION_ROLE ( 'classification_officer' ) ;
#70 = CIRCLE ( 'NONE', #164, 1.500000000000000000 ) ;
#71 =( NAMED_UNIT ( * ) SI_UNIT ( $, .STERADIAN. ) SOLID_ANGLE_UNIT ( ) );
#72 = PERSON_AND_ORGANIZATION ( #60, #58 ) ;
#73 = COORDINATED_UNIVERSAL_TIME_OFFSET ( 1, 0, .AHEAD. ) ;
#74 = APPROVAL_DATE_TIME ( #12, #135 ) ;
#75 = ORIENTED_EDGE ( 'NONE', *, *, #41, .F. ) ;
#76 = EDGE_CURVE ( 'NONE', #151, #151, #190, .T. ) ;
#77 = EDGE_LOOP ( 'NONE', ( #146 ) ) ;
#78 = AXIS2_PLACEMENT_3D ( 'NONE', #4, #65, #141 ) ;
#79 = DIRECTION ( 'NONE',  ( -3.491481338843133355E-15, 1.224646799147353207E-16, -1.000000000000000000 ) ) ;
#80 = FACE_OUTER_BOUND ( 'NONE', #31, .T. ) ;
#81 = AXIS2_PLACEMENT_3D ( 'NONE', #188, #43, #128 ) ;
#82 = DIRECTION ( 'NONE',  ( -3.491481338843133355E-15, 1.224646799147353207E-16, -1.000000000000000000 ) ) ;
#83 = DIRECTION ( 'NONE',  ( 0.0000000000000000000, 1.000000000000000000, 0.0000000000000000000 ) ) ;
#84 = DIRECTION ( 'NONE',  ( 3.491481338843133355E-15, -1.224646799147353207E-16, 1.000000000000000000 ) ) ;
#85 = APPROVAL_DATE_TIME ( #44, #18 ) ;
#86 = AXIS2_PLACEMENT_3D ( 'NONE', #5, #95, #184 ) ;
#87 = CC_DESIGN_PERSON_AND_ORGANIZATION_ASSIGNMENT ( #178, #69, ( #129 ) ) ;
#88 = APPROVAL_STATUS ( 'not_yet_approved' ) ;
#89 = PERSON_AND_ORGANIZATION_ROLE ( 'design_supplier' ) ;
#90 = EDGE_LOOP ( 'NONE', ( #203 ) ) ;
#91 = LOCAL_TIME ( 11, 26, 21.00000000000000000, #98 ) ;
#92 = PRODUCT_DEFINITION ( 'UNKNOWN', '', #37, #53 ) ;
#93 = DIRECTION ( 'NONE',  ( 4.275831445896959482E-31, 1.000000000000000000, 1.224646799147353207E-16 ) ) ;
#94 = VERTEX_POINT ( 'NONE', #148 ) ;
#95 = DIRECTION ( 'NONE',  ( 3.491481338843133355E-15, -1.224646799147353207E-16, 1.000000000000000000 ) ) ;
#96 = CONICAL_SURFACE ( 'NONE', #117, 1.499999999999999778, 0.4363323129985759996 ) ;
#97 = CARTESIAN_POINT ( 'NONE',  ( 1.085688354626984594E-14, 1.499999999999999334, 3.109535034738912351 ) ) ;
#98 = COORDINATED_UNIVERSAL_TIME_OFFSET ( 1, 0, .AHEAD. ) ;
#99 = PERSON_AND_ORGANIZATION ( #60, #58 ) ;
#100 = AXIS2_PLACEMENT_3D ( 'NONE', #52, #36, #93 ) ;
#101 = CC_DESIGN_DATE_AND_TIME_ASSIGNMENT ( #45, #193, ( #92 ) ) ;
#102 = CALENDAR_DATE ( 2021, 22, 11 ) ;
#103 = APPROVAL_STATUS ( 'not_yet_approved' ) ;
#104 = APPROVAL_PERSON_ORGANIZATION ( #173, #18, #28 ) ;
#105 = PRODUCT_DEFINITION_SHAPE ( 'NONE', 'NONE',  #92 ) ;
#106 = ORIENTED_EDGE ( 'NONE', *, *, #76, .T. ) ;
#107 = APPLICATION_CONTEXT ( 'configuration controlled 3d designs of mechanical parts and assemblies' ) ;
#108 = CARTESIAN_POINT ( 'NONE',  ( 1.085688354626984594E-14, -3.808082127129562511E-16, 3.109535034738912351 ) ) ;
#109 = LOCAL_TIME ( 11, 26, 21.00000000000000000, #157 ) ;
#110 = VERTEX_POINT ( 'NONE', #172 ) ;
#111 = FACE_OUTER_BOUND ( 'NONE', #77, .T. ) ;
#112 = PLANE ( 'NONE',  #86 ) ;
#113 = EDGE_CURVE ( 'NONE', #139, #139, #13, .T. ) ;
#114 = CARTESIAN_POINT ( 'NONE',  ( -4.774779157294971708E-33, 1.674767081399972585E-34, -1.367551103359769398E-18 ) ) ;
#115 =( NAMED_UNIT ( * ) PLANE_ANGLE_UNIT ( ) SI_UNIT ( $, .RADIAN. ) );
#116 = APPROVAL_STATUS ( 'not_yet_approved' ) ;
#117 = AXIS2_PLACEMENT_3D ( 'NONE', #108, #140, #127 ) ;
#118 = SECURITY_CLASSIFICATION_LEVEL ( 'unclassified' ) ;
#119 = DATE_AND_TIME ( #133, #49 ) ;
#120 = ADVANCED_BREP_SHAPE_REPRESENTATION ( '326694', ( #201, #198, #168 ), #160 ) ;
#121 = CARTESIAN_POINT ( 'NONE',  ( 1.326762908760390423E-13, 8.998558695971078593E-33, 38.00000000000000000 ) ) ;
#122 = CC_DESIGN_PERSON_AND_ORGANIZATION_ASSIGNMENT ( #99, #89, ( #37 ) ) ;
#123 = CONICAL_SURFACE ( 'NONE', #81, 1.500000000000000000, 0.7853981633974453924 ) ;
#124 = DIRECTION ( 'NONE',  ( -3.491481338843133355E-15, 1.224646799147353207E-16, -1.000000000000000000 ) ) ;
#125 = CARTESIAN_POINT ( 'NONE',  ( 1.085688354626984594E-14, -3.808082127129562511E-16, 3.109535034738912351 ) ) ;
#126 = FACE_BOUND ( 'NONE', #134, .T. ) ;
#127 = DIRECTION ( 'NONE',  ( 0.0000000000000000000, -1.000000000000000000, 0.0000000000000000000 ) ) ;
#128 = DIRECTION ( 'NONE',  ( 0.0000000000000000000, 1.000000000000000000, 0.0000000000000000000 ) ) ;
#129 = SECURITY_CLASSIFICATION ( '', '', #118 ) ;
#130 = APPLICATION_PROTOCOL_DEFINITION ( 'international standard', 'config_control_design', 1994, #107 ) ;
#131 = CALENDAR_DATE ( 2021, 22, 11 ) ;
#132 = CARTESIAN_POINT ( 'NONE',  ( 0.0000000000000000000, 0.0000000000000000000, 0.0000000000000000000 ) ) ;
#133 = CALENDAR_DATE ( 2021, 22, 11 ) ;
#134 = EDGE_LOOP ( 'NONE', ( #136 ) ) ;
#135 = APPROVAL ( #116, 'UNSPECIFIED' ) ;
#136 = ORIENTED_EDGE ( 'NONE', *, *, #113, .T. ) ;
#137 = DIRECTION ( 'NONE',  ( -3.491481338843133355E-15, 1.224646799147353207E-16, -1.000000000000000000 ) ) ;
#138 = CARTESIAN_POINT ( 'NONE',  ( 1.326762908760390423E-13, -4.653657836759941941E-15, 38.00000000000000000 ) ) ;
#139 = VERTEX_POINT ( 'NONE', #169 ) ;
#140 = DIRECTION ( 'NONE',  ( 3.491481338843133355E-15, -1.224646799147353207E-16, 1.000000000000000000 ) ) ;
#141 = DIRECTION ( 'NONE',  ( -4.275831445896958607E-31, -1.000000000000000000, -1.224646799147353207E-16 ) ) ;
#142 = CC_DESIGN_APPROVAL ( #135, ( #92 ) ) ;
#143 = APPROVAL_ROLE ( '' ) ;
#144 = ADVANCED_FACE ( 'NONE', ( #152 ), #40, .T. ) ;
#145 = MECHANICAL_CONTEXT ( 'NONE', #107, 'mechanical' ) ;
#146 = ORIENTED_EDGE ( 'NONE', *, *, #166, .F. ) ;
#147 = CARTESIAN_POINT ( 'NONE',  ( 1.316288464743861212E-13, -4.616918432785521081E-15, 37.69999999999999574 ) ) ;
#148 = CARTESIAN_POINT ( 'NONE',  ( 1.085688354626984594E-14, 1.499999999999999334, 3.109535034738912351 ) ) ;
#149 = CC_DESIGN_PERSON_AND_ORGANIZATION_ASSIGNMENT ( #175, #174, ( #92 ) ) ;
#150 = CARTESIAN_POINT ( 'NONE',  ( 1.182959891489475848E-32, 0.04999999999999978767, 3.388131789017201356E-18 ) ) ;
#151 = VERTEX_POINT ( 'NONE', #97 ) ;
#152 = FACE_OUTER_BOUND ( 'NONE', #90, .T. ) ;
#153 = DATE_AND_TIME ( #192, #165 ) ;
#154 = CALENDAR_DATE ( 2021, 22, 11 ) ;
#155 = APPROVAL_DATE_TIME ( #119, #66 ) ;
#156 = CC_DESIGN_PERSON_AND_ORGANIZATION_ASSIGNMENT ( #195, #159, ( #196 ) ) ;
#157 = COORDINATED_UNIVERSAL_TIME_OFFSET ( 1, 0, .AHEAD. ) ;
#158 = CIRCLE ( 'NONE', #180, 1.499999999999999778 ) ;
#159 = PERSON_AND_ORGANIZATION_ROLE ( 'design_owner' ) ;
#160 =( GEOMETRIC_REPRESENTATION_CONTEXT ( 3 ) GLOBAL_UNCERTAINTY_ASSIGNED_CONTEXT ( ( #38 ) ) GLOBAL_UNIT_ASSIGNED_CONTEXT ( ( #25, #115, #71 ) ) REPRESENTATION_CONTEXT ( 'NONE', 'WORKASPACE' ) );
#161 = EDGE_LOOP ( 'NONE', ( #162 ) ) ;
#162 = ORIENTED_EDGE ( 'NONE', *, *, #41, .T. ) ;
#163 = EDGE_LOOP ( 'NONE', ( #50 ) ) ;
#164 = AXIS2_PLACEMENT_3D ( 'NONE', #147, #82, #83 ) ;
#165 = LOCAL_TIME ( 11, 26, 21.00000000000000000, #27 ) ;
#166 = EDGE_CURVE ( 'NONE', #94, #94, #158, .T. ) ;
#167 = CYLINDRICAL_SURFACE ( 'NONE', #100, 1.500000000000000000 ) ;
#168 = AXIS2_PLACEMENT_3D ( 'NONE', #132, #197, #11 ) ;
#169 = CARTESIAN_POINT ( 'NONE',  ( 1.326762908760390423E-13, 1.199999999999995515, 38.00000000000000000 ) ) ;
#170 = VERTEX_POINT ( 'NONE', #150 ) ;
#171 = PLANE ( 'NONE',  #57 ) ;
#172 = CARTESIAN_POINT ( 'NONE',  ( 1.316288464743861212E-13, 1.499999999999995559, 37.69999999999999574 ) ) ;
#173 = PERSON_AND_ORGANIZATION ( #60, #58 ) ;
#174 = PERSON_AND_ORGANIZATION_ROLE ( 'creator' ) ;
#175 = PERSON_AND_ORGANIZATION ( #60, #58 ) ;
#176 = PRODUCT_RELATED_PRODUCT_CATEGORY ( 'detail', '', ( #196 ) ) ;
#177 = APPLICATION_CONTEXT ( 'configuration controlled 3d designs of mechanical parts and assemblies' ) ;
#178 = PERSON_AND_ORGANIZATION ( #60, #58 ) ;
#179 = PERSON_AND_ORGANIZATION ( #60, #58 ) ;
#180 = AXIS2_PLACEMENT_3D ( 'NONE', #125, #124, #67 ) ;
#181 = ORIENTED_EDGE ( 'NONE', *, *, #113, .F. ) ;
#182 = CLOSED_SHELL ( 'NONE', ( #32, #47, #144 ) ) ;
#183 = ADVANCED_FACE ( 'NONE', ( #185 ), #112, .F. ) ;
#184 = DIRECTION ( 'NONE',  ( -4.275831445896958607E-31, -1.000000000000000000, -1.224646799147353207E-16 ) ) ;
#185 = FACE_OUTER_BOUND ( 'NONE', #19, .T. ) ;
#186 = CIRCLE ( 'NONE', #17, 0.04999999999999978767 ) ;
#187 = LOCAL_TIME ( 11, 26, 21.00000000000000000, #73 ) ;
#188 = CARTESIAN_POINT ( 'NONE',  ( 1.316288464743861212E-13, -4.616918432785521081E-15, 37.69999999999999574 ) ) ;
#189 = FACE_OUTER_BOUND ( 'NONE', #161, .T. ) ;
#190 = CIRCLE ( 'NONE', #199, 1.499999999999999778 ) ;
#191 = CC_DESIGN_APPROVAL ( #66, ( #37 ) ) ;
#192 = CALENDAR_DATE ( 2021, 22, 11 ) ;
#193 = DATE_TIME_ROLE ( 'creation_date' ) ;
#194 = ADVANCED_FACE ( 'NONE', ( #189, #111 ), #167, .T. ) ;
#195 = PERSON_AND_ORGANIZATION ( #60, #58 ) ;
#196 = PRODUCT ( '326694', '326694', '', ( #145 ) ) ;
#197 = DIRECTION ( 'NONE',  ( 0.0000000000000000000, 0.0000000000000000000, 1.000000000000000000 ) ) ;
#198 = MANIFOLD_SOLID_BREP ( 'Corps-Déplacer/Copier1[2]', #182 ) ;
#199 = AXIS2_PLACEMENT_3D ( 'NONE', #22, #79, #39 ) ;
#200 = FACE_OUTER_BOUND ( 'NONE', #64, .T. ) ;
#201 = MANIFOLD_SOLID_BREP ( 'Corps-Déplacer/Copier1[1]', #63 ) ;
#202 = EDGE_CURVE ( 'NONE', #170, #170, #186, .T. ) ;
#203 = ORIENTED_EDGE ( 'NONE', *, *, #76, .F. ) ;
ENDSEC;
END-ISO-10303-21;
