ISO-10303-21;
HEADER;
FILE_DESCRIPTION (( 'STEP AP203' ),
    '1' );
FILE_NAME ('326693.step',
    '2021-11-22T10:26:20',
    ( '' ),
    ( '' ),
    'SwSTEP 2.0',
    'SolidWorks 2019',
    '' );
FILE_SCHEMA (( 'CONFIG_CONTROL_DESIGN' ));
ENDSEC;

DATA;
#1 = AXIS2_PLACEMENT_3D ( 'NONE', #21, #196, #180 ) ;
#2 = EDGE_LOOP ( 'NONE', ( #66 ) ) ;
#3 = CC_DESIGN_APPROVAL ( #32, ( #106 ) ) ;
#4 = APPROVAL_PERSON_ORGANIZATION ( #124, #32, #8 ) ;
#5 = CONICAL_SURFACE ( 'NONE', #147, 1.500000000000000222, 0.4363323129985758886 ) ;
#6 = CARTESIAN_POINT ( 'NONE',  ( 1.326762908760390423E-13, -4.653657836759941941E-15, 38.00000000000000000 ) ) ;
#7 = DIRECTION ( 'NONE',  ( 0.0000000000000000000, 1.000000000000000000, 0.0000000000000000000 ) ) ;
#8 = APPROVAL_ROLE ( '' ) ;
#9 = PERSON_AND_ORGANIZATION_ROLE ( 'design_supplier' ) ;
#10 = APPROVAL_DATE_TIME ( #45, #167 ) ;
#11 = EDGE_CURVE ( 'NONE', #71, #71, #168, .T. ) ;
#12 = DATE_AND_TIME ( #185, #40 ) ;
#13 = LOCAL_TIME ( 11, 26, 20.00000000000000000, #125 ) ;
#14 = CC_DESIGN_PERSON_AND_ORGANIZATION_ASSIGNMENT ( #183, #9, ( #187 ) ) ;
#15 = CIRCLE ( 'NONE', #135, 1.200000000000000178 ) ;
#16 = DIRECTION ( 'NONE',  ( 4.275831445896959482E-31, 1.000000000000000000, 1.224646799147353207E-16 ) ) ;
#17 = ORIENTED_EDGE ( 'NONE', *, *, #175, .F. ) ;
#18 = ORIENTED_EDGE ( 'NONE', *, *, #11, .T. ) ;
#19 = EDGE_CURVE ( 'NONE', #24, #24, #103, .T. ) ;
#20 = FACE_OUTER_BOUND ( 'NONE', #94, .T. ) ;
#21 = CARTESIAN_POINT ( 'NONE',  ( 1.093175860520963843E-14, 1.124819836996392795E-32, 3.130980103944008164 ) ) ;
#22 = DIRECTION ( 'NONE',  ( 4.275831445896958607E-31, 1.000000000000000000, 1.224646799147353207E-16 ) ) ;
#23 = ADVANCED_FACE ( 'NONE', ( #96, #172 ), #35, .T. ) ;
#24 = VERTEX_POINT ( 'NONE', #120 ) ;
#25 = ADVANCED_FACE ( 'NONE', ( #82 ), #130, .F. ) ;
#26 = SECURITY_CLASSIFICATION_LEVEL ( 'unclassified' ) ;
#27 = PRODUCT_DEFINITION_SHAPE ( 'NONE', 'NONE',  #106 ) ;
#28 = APPLICATION_PROTOCOL_DEFINITION ( 'international standard', 'config_control_design', 1994, #101 ) ;
#29 = AXIS2_PLACEMENT_3D ( 'NONE', #158, #143, #176 ) ;
#30 = APPROVAL_STATUS ( 'not_yet_approved' ) ;
#31 = APPROVAL_PERSON_ORGANIZATION ( #138, #167, #48 ) ;
#32 = APPROVAL ( #30, 'UNSPECIFIED' ) ;
#33 = EDGE_LOOP ( 'NONE', ( #190 ) ) ;
#34 = CARTESIAN_POINT ( 'NONE',  ( 1.093175860520964000E-14, -3.834344762489077069E-16, 3.130980103944008608 ) ) ;
#35 = CYLINDRICAL_SURFACE ( 'NONE', #141, 1.500000000000000000 ) ;
#36 = EDGE_LOOP ( 'NONE', ( #170 ) ) ;
#37 =( NAMED_UNIT ( * ) PLANE_ANGLE_UNIT ( ) SI_UNIT ( $, .RADIAN. ) );
#38 = CC_DESIGN_PERSON_AND_ORGANIZATION_ASSIGNMENT ( #72, #59, ( #104 ) ) ;
#39 = DIRECTION ( 'NONE',  ( -3.491481338843133355E-15, 1.224646799147353207E-16, -1.000000000000000000 ) ) ;
#40 = LOCAL_TIME ( 11, 26, 20.00000000000000000, #57 ) ;
#41 = CARTESIAN_POINT ( 'NONE',  ( 1.093175860520964000E-14, -3.834344762489077069E-16, 3.130980103944008608 ) ) ;
#42 = DIRECTION ( 'NONE',  ( -3.491481338843133355E-15, 1.224646799147353207E-16, -1.000000000000000000 ) ) ;
#43 = CC_DESIGN_PERSON_AND_ORGANIZATION_ASSIGNMENT ( #46, #163, ( #187 ) ) ;
#44 = COORDINATED_UNIVERSAL_TIME_OFFSET ( 1, 0, .AHEAD. ) ;
#45 = DATE_AND_TIME ( #58, #84 ) ;
#46 = PERSON_AND_ORGANIZATION ( #87, #80 ) ;
#47 = PERSON_AND_ORGANIZATION ( #87, #80 ) ;
#48 = APPROVAL_ROLE ( '' ) ;
#49 = EDGE_CURVE ( 'NONE', #121, #121, #97, .T. ) ;
#50 = EDGE_LOOP ( 'NONE', ( #115 ) ) ;
#51 = EDGE_LOOP ( 'NONE', ( #129 ) ) ;
#52 = CARTESIAN_POINT ( 'NONE',  ( 1.093175860520963843E-14, 1.124819836996392795E-32, 3.130980103944008164 ) ) ;
#53 = FACE_BOUND ( 'NONE', #51, .T. ) ;
#54 = DIRECTION ( 'NONE',  ( 0.0000000000000000000, 1.000000000000000000, 0.0000000000000000000 ) ) ;
#55 = AXIS2_PLACEMENT_3D ( 'NONE', #52, #154, #192 ) ;
#56 = CARTESIAN_POINT ( 'NONE',  ( 1.316288464743861212E-13, -4.616918432785521081E-15, 37.69999999999999574 ) ) ;
#57 = COORDINATED_UNIVERSAL_TIME_OFFSET ( 1, 0, .AHEAD. ) ;
#58 = CALENDAR_DATE ( 2021, 22, 11 ) ;
#59 = PERSON_AND_ORGANIZATION_ROLE ( 'classification_officer' ) ;
#60 = PERSON_AND_ORGANIZATION ( #87, #80 ) ;
#61 = ADVANCED_FACE ( 'NONE', ( #198 ), #136, .T. ) ;
#62 = AXIS2_PLACEMENT_3D ( 'NONE', #83, #148, #119 ) ;
#63 = MANIFOLD_SOLID_BREP ( 'Corps-Déplacer/Copier1[2]', #199 ) ;
#64 = ORIENTED_EDGE ( 'NONE', *, *, #19, .F. ) ;
#65 = APPROVAL ( #122, 'UNSPECIFIED' ) ;
#66 = ORIENTED_EDGE ( 'NONE', *, *, #175, .T. ) ;
#67 = DIRECTION ( 'NONE',  ( 0.0000000000000000000, 1.000000000000000000, 0.0000000000000000000 ) ) ;
#68 = FACE_OUTER_BOUND ( 'NONE', #33, .T. ) ;
#69 = APPLICATION_PROTOCOL_DEFINITION ( 'international standard', 'config_control_design', 1994, #128 ) ;
#70 = CIRCLE ( 'NONE', #29, 0.04000000000000025063 ) ;
#71 = VERTEX_POINT ( 'NONE', #99 ) ;
#72 = PERSON_AND_ORGANIZATION ( #87, #80 ) ;
#73 = ADVANCED_FACE ( 'NONE', ( #53, #161 ), #5, .T. ) ;
#74 = DATE_TIME_ROLE ( 'creation_date' ) ;
#75 = DIRECTION ( 'NONE',  ( 1.000000000000000000, 0.0000000000000000000, 0.0000000000000000000 ) ) ;
#76 = CLOSED_SHELL ( 'NONE', ( #25, #23, #149, #118 ) ) ;
#77 = PERSON_AND_ORGANIZATION ( #87, #80 ) ;
#78 = CC_DESIGN_DATE_AND_TIME_ASSIGNMENT ( #109, #184, ( #104 ) ) ;
#79 = EDGE_LOOP ( 'NONE', ( #95 ) ) ;
#80 = ORGANIZATION ( 'UNSPECIFIED', 'UNSPECIFIED', '' ) ;
#81 = CC_DESIGN_DATE_AND_TIME_ASSIGNMENT ( #12, #74, ( #106 ) ) ;
#82 = FACE_OUTER_BOUND ( 'NONE', #155, .T. ) ;
#83 = CARTESIAN_POINT ( 'NONE',  ( -2.636863434346591631E-33, 9.248871900690787200E-35, -7.552277037861212091E-19 ) ) ;
#84 = LOCAL_TIME ( 11, 26, 20.00000000000000000, #200 ) ;
#85 = DIRECTION ( 'NONE',  ( -3.491481338843133355E-15, 1.224646799147353207E-16, -1.000000000000000000 ) ) ;
#86 = PLANE ( 'NONE',  #62 ) ;
#87 = PERSON ( 'UNSPECIFIED', 'UNSPECIFIED', 'UNSPECIFIED', ('UNSPECIFIED'), ('UNSPECIFIED'), ('UNSPECIFIED') ) ;
#88 = PRODUCT ( '326693', '326693', '', ( #112 ) ) ;
#89 = PERSON_AND_ORGANIZATION_ROLE ( 'design_owner' ) ;
#90 = AXIS2_PLACEMENT_3D ( 'NONE', #202, #166, #75 ) ;
#91 = UNCERTAINTY_MEASURE_WITH_UNIT (LENGTH_MEASURE( 1.000000000000000082E-05 ), #174, 'distance_accuracy_value', 'NONE');
#92 = COORDINATED_UNIVERSAL_TIME_OFFSET ( 1, 0, .AHEAD. ) ;
#93 = DATE_AND_TIME ( #113, #13 ) ;
#94 = EDGE_LOOP ( 'NONE', ( #17 ) ) ;
#95 = ORIENTED_EDGE ( 'NONE', *, *, #11, .F. ) ;
#96 = FACE_OUTER_BOUND ( 'NONE', #36, .T. ) ;
#97 = CIRCLE ( 'NONE', #156, 1.500000000000000000 ) ;
#98 = CARTESIAN_POINT ( 'NONE',  ( 1.326762908760390423E-13, 8.998558695971078593E-33, 38.00000000000000000 ) ) ;
#99 = CARTESIAN_POINT ( 'NONE',  ( 1.093175860520964000E-14, 1.499999999999999778, 3.130980103944008608 ) ) ;
#100 = FACE_BOUND ( 'NONE', #2, .T. ) ;
#101 = APPLICATION_CONTEXT ( 'configuration controlled 3d designs of mechanical parts and assemblies' ) ;
#102 =( NAMED_UNIT ( * ) SI_UNIT ( $, .STERADIAN. ) SOLID_ANGLE_UNIT ( ) );
#103 = CIRCLE ( 'NONE', #131, 1.500000000000000222 ) ;
#104 = SECURITY_CLASSIFICATION ( '', '', #26 ) ;
#105 = APPROVAL_DATE_TIME ( #182, #65 ) ;
#106 = PRODUCT_DEFINITION ( 'UNKNOWN', '', #187, #108 ) ;
#107 = APPROVAL_DATE_TIME ( #93, #32 ) ;
#108 = DESIGN_CONTEXT ( 'detailed design', #101, 'design' ) ;
#109 = DATE_AND_TIME ( #153, #169 ) ;
#110 = APPROVAL_PERSON_ORGANIZATION ( #47, #65, #201 ) ;
#111 = CONICAL_SURFACE ( 'NONE', #177, 1.500000000000000000, 0.7853981633974453924 ) ;
#112 = MECHANICAL_CONTEXT ( 'NONE', #128, 'mechanical' ) ;
#113 = CALENDAR_DATE ( 2021, 22, 11 ) ;
#114 = AXIS2_PLACEMENT_3D ( 'NONE', #188, #157, #67 ) ;
#115 = ORIENTED_EDGE ( 'NONE', *, *, #49, .F. ) ;
#116 = DIRECTION ( 'NONE',  ( -3.491481338843133355E-15, 1.224646799147353207E-16, -1.000000000000000000 ) ) ;
#117 = CARTESIAN_POINT ( 'NONE',  ( 1.326762908760390423E-13, 1.199999999999995515, 38.00000000000000000 ) ) ;
#118 = ADVANCED_FACE ( 'NONE', ( #20 ), #194, .F. ) ;
#119 = DIRECTION ( 'NONE',  ( -4.275831445896958607E-31, -1.000000000000000000, -1.224646799147353207E-16 ) ) ;
#120 = CARTESIAN_POINT ( 'NONE',  ( 1.093175860520964000E-14, 1.499999999999999778, 3.130980103944008608 ) ) ;
#121 = VERTEX_POINT ( 'NONE', #144 ) ;
#122 = APPROVAL_STATUS ( 'not_yet_approved' ) ;
#123 = LOCAL_TIME ( 11, 26, 20.00000000000000000, #44 ) ;
#124 = PERSON_AND_ORGANIZATION ( #87, #80 ) ;
#125 = COORDINATED_UNIVERSAL_TIME_OFFSET ( 1, 0, .AHEAD. ) ;
#126 = PERSON_AND_ORGANIZATION_ROLE ( 'creator' ) ;
#127 = CC_DESIGN_SECURITY_CLASSIFICATION ( #104, ( #187 ) ) ;
#128 = APPLICATION_CONTEXT ( 'configuration controlled 3d designs of mechanical parts and assemblies' ) ;
#129 = ORIENTED_EDGE ( 'NONE', *, *, #189, .F. ) ;
#130 = PLANE ( 'NONE',  #55 ) ;
#131 = AXIS2_PLACEMENT_3D ( 'NONE', #34, #116, #132 ) ;
#132 = DIRECTION ( 'NONE',  ( 0.0000000000000000000, 1.000000000000000000, 0.0000000000000000000 ) ) ;
#133 = DIRECTION ( 'NONE',  ( 3.491481338843133355E-15, -1.224646799147353207E-16, 1.000000000000000000 ) ) ;
#134 = MANIFOLD_SOLID_BREP ( 'Corps-Déplacer/Copier1[1]', #76 ) ;
#135 = AXIS2_PLACEMENT_3D ( 'NONE', #6, #39, #54 ) ;
#136 = PLANE ( 'NONE',  #1 ) ;
#137 = VERTEX_POINT ( 'NONE', #117 ) ;
#138 = PERSON_AND_ORGANIZATION ( #87, #80 ) ;
#139 = ORIENTED_EDGE ( 'NONE', *, *, #19, .T. ) ;
#140 = ADVANCED_FACE ( 'NONE', ( #68 ), #86, .F. ) ;
#141 = AXIS2_PLACEMENT_3D ( 'NONE', #142, #191, #16 ) ;
#142 = CARTESIAN_POINT ( 'NONE',  ( 0.0000000000000000000, 0.0000000000000000000, 0.0000000000000000000 ) ) ;
#143 = DIRECTION ( 'NONE',  ( -3.491481338843133355E-15, 1.224646799147353207E-16, -1.000000000000000000 ) ) ;
#144 = CARTESIAN_POINT ( 'NONE',  ( 1.316288464743861212E-13, 1.499999999999995559, 37.69999999999999574 ) ) ;
#145 = DIRECTION ( 'NONE',  ( 0.0000000000000000000, 1.000000000000000000, 0.0000000000000000000 ) ) ;
#146 = DIRECTION ( 'NONE',  ( -3.491481338843133355E-15, 1.224646799147353207E-16, -1.000000000000000000 ) ) ;
#147 = AXIS2_PLACEMENT_3D ( 'NONE', #41, #133, #197 ) ;
#148 = DIRECTION ( 'NONE',  ( 3.491481338843133355E-15, -1.224646799147353207E-16, 1.000000000000000000 ) ) ;
#149 = ADVANCED_FACE ( 'NONE', ( #100, #162 ), #111, .T. ) ;
#150 = APPROVAL_STATUS ( 'not_yet_approved' ) ;
#151 = CALENDAR_DATE ( 2021, 22, 11 ) ;
#152 = CC_DESIGN_PERSON_AND_ORGANIZATION_ASSIGNMENT ( #77, #89, ( #88 ) ) ;
#153 = CALENDAR_DATE ( 2021, 22, 11 ) ;
#154 = DIRECTION ( 'NONE',  ( 3.491481338843133355E-15, -1.224646799147353207E-16, 1.000000000000000000 ) ) ;
#155 = EDGE_LOOP ( 'NONE', ( #139 ) ) ;
#156 = AXIS2_PLACEMENT_3D ( 'NONE', #178, #146, #7 ) ;
#157 = DIRECTION ( 'NONE',  ( -3.491481338843133355E-15, 1.224646799147353207E-16, -1.000000000000000000 ) ) ;
#158 = CARTESIAN_POINT ( 'NONE',  ( -5.273726868693183263E-33, 1.849774380138157440E-34, -1.510455407572242418E-18 ) ) ;
#159 = CC_DESIGN_APPROVAL ( #65, ( #187 ) ) ;
#160 = CARTESIAN_POINT ( 'NONE',  ( 1.182959891489475848E-32, 0.04000000000000025063, 3.388131789017201356E-18 ) ) ;
#161 = FACE_OUTER_BOUND ( 'NONE', #173, .T. ) ;
#162 = FACE_OUTER_BOUND ( 'NONE', #50, .T. ) ;
#163 = PERSON_AND_ORGANIZATION_ROLE ( 'creator' ) ;
#164 = CC_DESIGN_PERSON_AND_ORGANIZATION_ASSIGNMENT ( #60, #126, ( #106 ) ) ;
#165 = CC_DESIGN_APPROVAL ( #167, ( #104 ) ) ;
#166 = DIRECTION ( 'NONE',  ( 0.0000000000000000000, 0.0000000000000000000, 1.000000000000000000 ) ) ;
#167 = APPROVAL ( #150, 'UNSPECIFIED' ) ;
#168 = CIRCLE ( 'NONE', #114, 1.500000000000000222 ) ;
#169 = LOCAL_TIME ( 11, 26, 20.00000000000000000, #92 ) ;
#170 = ORIENTED_EDGE ( 'NONE', *, *, #49, .T. ) ;
#171 = EDGE_LOOP ( 'NONE', ( #64 ) ) ;
#172 = FACE_OUTER_BOUND ( 'NONE', #171, .T. ) ;
#173 = EDGE_LOOP ( 'NONE', ( #18 ) ) ;
#174 =( LENGTH_UNIT ( ) NAMED_UNIT ( * ) SI_UNIT ( .MILLI., .METRE. ) );
#175 = EDGE_CURVE ( 'NONE', #137, #137, #15, .T. ) ;
#176 = DIRECTION ( 'NONE',  ( 4.275831445896958607E-31, 1.000000000000000000, 1.224646799147353207E-16 ) ) ;
#177 = AXIS2_PLACEMENT_3D ( 'NONE', #56, #85, #145 ) ;
#178 = CARTESIAN_POINT ( 'NONE',  ( 1.316288464743861212E-13, -4.616918432785521081E-15, 37.69999999999999574 ) ) ;
#179 = PRODUCT_RELATED_PRODUCT_CATEGORY ( 'detail', '', ( #88 ) ) ;
#180 = DIRECTION ( 'NONE',  ( -4.275831445896958607E-31, -1.000000000000000000, -1.224646799147353207E-16 ) ) ;
#181 = VERTEX_POINT ( 'NONE', #160 ) ;
#182 = DATE_AND_TIME ( #151, #123 ) ;
#183 = PERSON_AND_ORGANIZATION ( #87, #80 ) ;
#184 = DATE_TIME_ROLE ( 'classification_date' ) ;
#185 = CALENDAR_DATE ( 2021, 22, 11 ) ;
#186 =( GEOMETRIC_REPRESENTATION_CONTEXT ( 3 ) GLOBAL_UNCERTAINTY_ASSIGNED_CONTEXT ( ( #91 ) ) GLOBAL_UNIT_ASSIGNED_CONTEXT ( ( #174, #37, #102 ) ) REPRESENTATION_CONTEXT ( 'NONE', 'WORKASPACE' ) );
#187 = PRODUCT_DEFINITION_FORMATION_WITH_SPECIFIED_SOURCE ( 'ANY', '', #88, .NOT_KNOWN. ) ;
#188 = CARTESIAN_POINT ( 'NONE',  ( 1.093175860520964000E-14, -3.834344762489077069E-16, 3.130980103944008608 ) ) ;
#189 = EDGE_CURVE ( 'NONE', #181, #181, #70, .T. ) ;
#190 = ORIENTED_EDGE ( 'NONE', *, *, #189, .T. ) ;
#191 = DIRECTION ( 'NONE',  ( -3.491481338843133355E-15, 1.224646799147353207E-16, -1.000000000000000000 ) ) ;
#192 = DIRECTION ( 'NONE',  ( -4.275831445896958607E-31, -1.000000000000000000, -1.224646799147353207E-16 ) ) ;
#193 = ADVANCED_BREP_SHAPE_REPRESENTATION ( '326693', ( #134, #63, #90 ), #186 ) ;
#194 = PLANE ( 'NONE',  #195 ) ;
#195 = AXIS2_PLACEMENT_3D ( 'NONE', #98, #42, #22 ) ;
#196 = DIRECTION ( 'NONE',  ( 3.491481338843133355E-15, -1.224646799147353207E-16, 1.000000000000000000 ) ) ;
#197 = DIRECTION ( 'NONE',  ( 0.0000000000000000000, -1.000000000000000000, 0.0000000000000000000 ) ) ;
#198 = FACE_OUTER_BOUND ( 'NONE', #79, .T. ) ;
#199 = CLOSED_SHELL ( 'NONE', ( #140, #73, #61 ) ) ;
#200 = COORDINATED_UNIVERSAL_TIME_OFFSET ( 1, 0, .AHEAD. ) ;
#201 = APPROVAL_ROLE ( '' ) ;
#202 = CARTESIAN_POINT ( 'NONE',  ( 0.0000000000000000000, 0.0000000000000000000, 0.0000000000000000000 ) ) ;
#203 = SHAPE_DEFINITION_REPRESENTATION ( #27, #193 ) ;
ENDSEC;
END-ISO-10303-21;
