ISO-10303-21;
HEADER;
FILE_DESCRIPTION (( 'STEP AP203' ),
    '1' );
FILE_NAME ('326692.step',
    '2021-11-22T10:26:20',
    ( '' ),
    ( '' ),
    'SwSTEP 2.0',
    'SolidWorks 2019',
    '' );
FILE_SCHEMA (( 'CONFIG_CONTROL_DESIGN' ));
ENDSEC;

DATA;
#1 = CARTESIAN_POINT ( 'NONE',  ( 1.316288464743861212E-13, 1.499999999999995559, 37.69999999999999574 ) ) ;
#2 = VERTEX_POINT ( 'NONE', #142 ) ;
#3 =( LENGTH_UNIT ( ) NAMED_UNIT ( * ) SI_UNIT ( .MILLI., .METRE. ) );
#4 = ORIENTED_EDGE ( 'NONE', *, *, #178, .F. ) ;
#5 = EDGE_LOOP ( 'NONE', ( #4 ) ) ;
#6 = ORIENTED_EDGE ( 'NONE', *, *, #79, .T. ) ;
#7 = CIRCLE ( 'NONE', #103, 1.200000000000000178 ) ;
#8 = CARTESIAN_POINT ( 'NONE',  ( 1.096919613467953467E-14, -3.847476080168833854E-16, 3.141702638546556070 ) ) ;
#9 = DIRECTION ( 'NONE',  ( -3.491481338843133355E-15, 1.224646799147353207E-16, -1.000000000000000000 ) ) ;
#10 = CLOSED_SHELL ( 'NONE', ( #22, #24, #50 ) ) ;
#11 = DIRECTION ( 'NONE',  ( 4.275831445896958607E-31, 1.000000000000000000, 1.224646799147353207E-16 ) ) ;
#12 = CYLINDRICAL_SURFACE ( 'NONE', #91, 1.500000000000000000 ) ;
#13 = FACE_OUTER_BOUND ( 'NONE', #74, .T. ) ;
#14 = APPROVAL ( #189, 'UNSPECIFIED' ) ;
#15 = CC_DESIGN_PERSON_AND_ORGANIZATION_ASSIGNMENT ( #172, #34, ( #135 ) ) ;
#16 =( NAMED_UNIT ( * ) PLANE_ANGLE_UNIT ( ) SI_UNIT ( $, .RADIAN. ) );
#17 = LOCAL_TIME ( 11, 26, 20.00000000000000000, #38 ) ;
#18 =( NAMED_UNIT ( * ) SI_UNIT ( $, .STERADIAN. ) SOLID_ANGLE_UNIT ( ) );
#19 = DATE_TIME_ROLE ( 'classification_date' ) ;
#20 = CALENDAR_DATE ( 2021, 22, 11 ) ;
#21 = APPROVAL_DATE_TIME ( #72, #83 ) ;
#22 = ADVANCED_FACE ( 'NONE', ( #180 ), #42, .F. ) ;
#23 = ORIENTED_EDGE ( 'NONE', *, *, #151, .F. ) ;
#24 = ADVANCED_FACE ( 'NONE', ( #190, #13 ), #40, .T. ) ;
#25 = CC_DESIGN_APPROVAL ( #83, ( #159 ) ) ;
#26 = EDGE_LOOP ( 'NONE', ( #194 ) ) ;
#27 = ADVANCED_FACE ( 'NONE', ( #81, #138 ), #12, .T. ) ;
#28 = DIRECTION ( 'NONE',  ( 0.0000000000000000000, 1.000000000000000000, 0.0000000000000000000 ) ) ;
#29 = CARTESIAN_POINT ( 'NONE',  ( 1.096919613467953309E-14, -9.083308869374977500E-16, 3.141702638546555626 ) ) ;
#30 = VERTEX_POINT ( 'NONE', #136 ) ;
#31 = PERSON_AND_ORGANIZATION_ROLE ( 'creator' ) ;
#32 = DIRECTION ( 'NONE',  ( 0.0000000000000000000, 0.0000000000000000000, 1.000000000000000000 ) ) ;
#33 = CC_DESIGN_PERSON_AND_ORGANIZATION_ASSIGNMENT ( #118, #31, ( #107 ) ) ;
#34 = PERSON_AND_ORGANIZATION_ROLE ( 'creator' ) ;
#35 = APPLICATION_PROTOCOL_DEFINITION ( 'international standard', 'config_control_design', 1994, #71 ) ;
#36 = SECURITY_CLASSIFICATION_LEVEL ( 'unclassified' ) ;
#37 = APPROVAL_ROLE ( '' ) ;
#38 = COORDINATED_UNIVERSAL_TIME_OFFSET ( 1, 0, .AHEAD. ) ;
#39 = CC_DESIGN_PERSON_AND_ORGANIZATION_ASSIGNMENT ( #99, #158, ( #159 ) ) ;
#40 = CONICAL_SURFACE ( 'NONE', #55, 1.500000000000000222, 0.4363323129985759441 ) ;
#41 = CC_DESIGN_PERSON_AND_ORGANIZATION_ASSIGNMENT ( #68, #84, ( #135 ) ) ;
#42 = PLANE ( 'NONE',  #57 ) ;
#43 = CIRCLE ( 'NONE', #114, 1.500000000000000222 ) ;
#44 = UNCERTAINTY_MEASURE_WITH_UNIT (LENGTH_MEASURE( 1.000000000000000082E-05 ), #3, 'distance_accuracy_value', 'NONE');
#45 = DIRECTION ( 'NONE',  ( -4.275831445896958607E-31, -1.000000000000000000, -1.224646799147353207E-16 ) ) ;
#46 = DIRECTION ( 'NONE',  ( -3.491481338843133355E-15, 1.224646799147353207E-16, -1.000000000000000000 ) ) ;
#47 = CC_DESIGN_APPROVAL ( #70, ( #135 ) ) ;
#48 = CARTESIAN_POINT ( 'NONE',  ( 1.096919613467953467E-14, 1.499999999999999778, 3.141702638546556070 ) ) ;
#49 = DIRECTION ( 'NONE',  ( -3.491481338843133355E-15, 1.224646799147353207E-16, -1.000000000000000000 ) ) ;
#50 = ADVANCED_FACE ( 'NONE', ( #152 ), #182, .T. ) ;
#51 = APPLICATION_PROTOCOL_DEFINITION ( 'international standard', 'config_control_design', 1994, #60 ) ;
#52 = APPROVAL_ROLE ( '' ) ;
#53 = DATE_AND_TIME ( #188, #75 ) ;
#54 = APPROVAL_DATE_TIME ( #143, #14 ) ;
#55 = AXIS2_PLACEMENT_3D ( 'NONE', #164, #126, #184 ) ;
#56 = ORIENTED_EDGE ( 'NONE', *, *, #67, .T. ) ;
#57 = AXIS2_PLACEMENT_3D ( 'NONE', #73, #105, #133 ) ;
#58 = ORIENTED_EDGE ( 'NONE', *, *, #119, .F. ) ;
#59 = EDGE_LOOP ( 'NONE', ( #134 ) ) ;
#60 = APPLICATION_CONTEXT ( 'configuration controlled 3d designs of mechanical parts and assemblies' ) ;
#61 = PLANE ( 'NONE',  #153 ) ;
#62 = AXIS2_PLACEMENT_3D ( 'NONE', #64, #77, #63 ) ;
#63 = DIRECTION ( 'NONE',  ( 0.0000000000000000000, 1.000000000000000000, 0.0000000000000000000 ) ) ;
#64 = CARTESIAN_POINT ( 'NONE',  ( 1.096919613467953467E-14, -3.847476080168833854E-16, 3.141702638546556070 ) ) ;
#65 = AXIS2_PLACEMENT_3D ( 'NONE', #137, #125, #11 ) ;
#66 = DIRECTION ( 'NONE',  ( 3.491481338843133355E-15, -1.224646799147353207E-16, 1.000000000000000000 ) ) ;
#67 = EDGE_CURVE ( 'NONE', #183, #183, #43, .T. ) ;
#68 = PERSON_AND_ORGANIZATION ( #191, #128 ) ;
#69 = DIRECTION ( 'NONE',  ( 1.000000000000000000, 0.0000000000000000000, 0.0000000000000000000 ) ) ;
#70 = APPROVAL ( #186, 'UNSPECIFIED' ) ;
#71 = APPLICATION_CONTEXT ( 'configuration controlled 3d designs of mechanical parts and assemblies' ) ;
#72 = DATE_AND_TIME ( #89, #147 ) ;
#73 = CARTESIAN_POINT ( 'NONE',  ( -7.482705030319732081E-33, 2.624579619658269972E-34, -2.143131898507883782E-18 ) ) ;
#74 = EDGE_LOOP ( 'NONE', ( #6 ) ) ;
#75 = LOCAL_TIME ( 11, 26, 20.00000000000000000, #130 ) ;
#76 = DIRECTION ( 'NONE',  ( -3.491481338843133355E-15, 1.224646799147353207E-16, -1.000000000000000000 ) ) ;
#77 = DIRECTION ( 'NONE',  ( -3.491481338843133355E-15, 1.224646799147353207E-16, -1.000000000000000000 ) ) ;
#78 = FACE_OUTER_BOUND ( 'NONE', #177, .T. ) ;
#79 = EDGE_CURVE ( 'NONE', #111, #111, #179, .T. ) ;
#80 = PLANE ( 'NONE',  #193 ) ;
#81 = FACE_OUTER_BOUND ( 'NONE', #92, .T. ) ;
#82 = AXIS2_PLACEMENT_3D ( 'NONE', #108, #199, #123 ) ;
#83 = APPROVAL ( #175, 'UNSPECIFIED' ) ;
#84 = PERSON_AND_ORGANIZATION_ROLE ( 'design_supplier' ) ;
#85 = PRODUCT_DEFINITION_SHAPE ( 'NONE', 'NONE',  #107 ) ;
#86 = CALENDAR_DATE ( 2021, 22, 11 ) ;
#87 = CLOSED_SHELL ( 'NONE', ( #155, #27, #166, #187 ) ) ;
#88 = CC_DESIGN_DATE_AND_TIME_ASSIGNMENT ( #176, #101, ( #107 ) ) ;
#89 = CALENDAR_DATE ( 2021, 22, 11 ) ;
#90 = COORDINATED_UNIVERSAL_TIME_OFFSET ( 1, 0, .AHEAD. ) ;
#91 = AXIS2_PLACEMENT_3D ( 'NONE', #150, #9, #106 ) ;
#92 = EDGE_LOOP ( 'NONE', ( #195 ) ) ;
#93 = DIRECTION ( 'NONE',  ( 0.0000000000000000000, 1.000000000000000000, 0.0000000000000000000 ) ) ;
#94 = DIRECTION ( 'NONE',  ( -3.491481338843133355E-15, 1.224646799147353207E-16, -1.000000000000000000 ) ) ;
#95 =( GEOMETRIC_REPRESENTATION_CONTEXT ( 3 ) GLOBAL_UNCERTAINTY_ASSIGNED_CONTEXT ( ( #44 ) ) GLOBAL_UNIT_ASSIGNED_CONTEXT ( ( #3, #16, #18 ) ) REPRESENTATION_CONTEXT ( 'NONE', 'WORKASPACE' ) );
#96 = PERSON_AND_ORGANIZATION ( #191, #128 ) ;
#97 = PERSON_AND_ORGANIZATION ( #191, #128 ) ;
#98 = APPROVAL_ROLE ( '' ) ;
#99 = PERSON_AND_ORGANIZATION ( #191, #128 ) ;
#100 = APPROVAL_PERSON_ORGANIZATION ( #117, #83, #37 ) ;
#101 = DATE_TIME_ROLE ( 'creation_date' ) ;
#102 = EDGE_LOOP ( 'NONE', ( #58 ) ) ;
#103 = AXIS2_PLACEMENT_3D ( 'NONE', #109, #94, #93 ) ;
#104 = EDGE_LOOP ( 'NONE', ( #121 ) ) ;
#105 = DIRECTION ( 'NONE',  ( 3.491481338843133355E-15, -1.224646799147353207E-16, 1.000000000000000000 ) ) ;
#106 = DIRECTION ( 'NONE',  ( 4.275831445896959482E-31, 1.000000000000000000, 1.224646799147353207E-16 ) ) ;
#107 = PRODUCT_DEFINITION ( 'UNKNOWN', '', #135, #148 ) ;
#108 = CARTESIAN_POINT ( 'NONE',  ( 1.316288464743861212E-13, -4.616918432785521081E-15, 37.69999999999999574 ) ) ;
#109 = CARTESIAN_POINT ( 'NONE',  ( 1.326762908760390423E-13, -4.653657836759941941E-15, 38.00000000000000000 ) ) ;
#110 = CC_DESIGN_APPROVAL ( #14, ( #107 ) ) ;
#111 = VERTEX_POINT ( 'NONE', #167 ) ;
#112 = DIRECTION ( 'NONE',  ( 0.0000000000000000000, 1.000000000000000000, 0.0000000000000000000 ) ) ;
#113 = MECHANICAL_CONTEXT ( 'NONE', #60, 'mechanical' ) ;
#114 = AXIS2_PLACEMENT_3D ( 'NONE', #8, #49, #28 ) ;
#115 = DATE_AND_TIME ( #173, #17 ) ;
#116 = PRODUCT ( '326692', '326692', '', ( #113 ) ) ;
#117 = PERSON_AND_ORGANIZATION ( #191, #128 ) ;
#118 = PERSON_AND_ORGANIZATION ( #191, #128 ) ;
#119 = EDGE_CURVE ( 'NONE', #30, #30, #197, .T. ) ;
#120 = ORIENTED_EDGE ( 'NONE', *, *, #178, .T. ) ;
#121 = ORIENTED_EDGE ( 'NONE', *, *, #79, .F. ) ;
#122 = ADVANCED_BREP_SHAPE_REPRESENTATION ( '326692', ( #198, #201, #192 ), #95 ) ;
#123 = DIRECTION ( 'NONE',  ( 0.0000000000000000000, 1.000000000000000000, 0.0000000000000000000 ) ) ;
#124 = APPROVAL_PERSON_ORGANIZATION ( #96, #14, #98 ) ;
#125 = DIRECTION ( 'NONE',  ( -3.491481338843133355E-15, 1.224646799147353207E-16, -1.000000000000000000 ) ) ;
#126 = DIRECTION ( 'NONE',  ( 3.491481338843133355E-15, -1.224646799147353207E-16, 1.000000000000000000 ) ) ;
#127 = DIRECTION ( 'NONE',  ( 4.275831445896958607E-31, 1.000000000000000000, 1.224646799147353207E-16 ) ) ;
#128 = ORGANIZATION ( 'UNSPECIFIED', 'UNSPECIFIED', '' ) ;
#129 = CARTESIAN_POINT ( 'NONE',  ( 0.0000000000000000000, 0.0000000000000000000, 0.0000000000000000000 ) ) ;
#130 = COORDINATED_UNIVERSAL_TIME_OFFSET ( 1, 0, .AHEAD. ) ;
#131 = PERSON_AND_ORGANIZATION_ROLE ( 'design_owner' ) ;
#132 = COORDINATED_UNIVERSAL_TIME_OFFSET ( 1, 0, .AHEAD. ) ;
#133 = DIRECTION ( 'NONE',  ( -4.275831445896958607E-31, -1.000000000000000000, -1.224646799147353207E-16 ) ) ;
#134 = ORIENTED_EDGE ( 'NONE', *, *, #67, .F. ) ;
#135 = PRODUCT_DEFINITION_FORMATION_WITH_SPECIFIED_SOURCE ( 'ANY', '', #116, .NOT_KNOWN. ) ;
#136 = CARTESIAN_POINT ( 'NONE',  ( 0.0000000000000000000, 0.03500000000000025313, 0.0000000000000000000 ) ) ;
#137 = CARTESIAN_POINT ( 'NONE',  ( -1.496541006063946416E-32, 5.249159239316539944E-34, -4.286263797015767564E-18 ) ) ;
#138 = FACE_OUTER_BOUND ( 'NONE', #59, .T. ) ;
#139 = CC_DESIGN_SECURITY_CLASSIFICATION ( #159, ( #135 ) ) ;
#140 = PRODUCT_RELATED_PRODUCT_CATEGORY ( 'detail', '', ( #116 ) ) ;
#141 = CC_DESIGN_PERSON_AND_ORGANIZATION_ASSIGNMENT ( #174, #131, ( #116 ) ) ;
#142 = CARTESIAN_POINT ( 'NONE',  ( 1.326762908760390423E-13, 1.199999999999995515, 38.00000000000000000 ) ) ;
#143 = DATE_AND_TIME ( #86, #145 ) ;
#144 = SHAPE_DEFINITION_REPRESENTATION ( #85, #122 ) ;
#145 = LOCAL_TIME ( 11, 26, 20.00000000000000000, #157 ) ;
#146 = EDGE_LOOP ( 'NONE', ( #120 ) ) ;
#147 = LOCAL_TIME ( 11, 26, 20.00000000000000000, #132 ) ;
#148 = DESIGN_CONTEXT ( 'detailed design', #71, 'design' ) ;
#149 = DIRECTION ( 'NONE',  ( 3.491481338843133355E-15, -1.224646799147353207E-16, 1.000000000000000000 ) ) ;
#150 = CARTESIAN_POINT ( 'NONE',  ( 0.0000000000000000000, 0.0000000000000000000, 0.0000000000000000000 ) ) ;
#151 = EDGE_CURVE ( 'NONE', #171, #171, #156, .T. ) ;
#152 = FACE_OUTER_BOUND ( 'NONE', #104, .T. ) ;
#153 = AXIS2_PLACEMENT_3D ( 'NONE', #29, #149, #45 ) ;
#154 = FACE_OUTER_BOUND ( 'NONE', #5, .T. ) ;
#155 = ADVANCED_FACE ( 'NONE', ( #168 ), #61, .F. ) ;
#156 = CIRCLE ( 'NONE', #185, 1.500000000000000000 ) ;
#157 = COORDINATED_UNIVERSAL_TIME_OFFSET ( 1, 0, .AHEAD. ) ;
#158 = PERSON_AND_ORGANIZATION_ROLE ( 'classification_officer' ) ;
#159 = SECURITY_CLASSIFICATION ( '', '', #36 ) ;
#160 = APPROVAL_DATE_TIME ( #115, #70 ) ;
#161 = EDGE_LOOP ( 'NONE', ( #56 ) ) ;
#162 = CONICAL_SURFACE ( 'NONE', #82, 1.500000000000000000, 0.7853981633974453924 ) ;
#163 = DIRECTION ( 'NONE',  ( -4.275831445896958607E-31, -1.000000000000000000, -1.224646799147353207E-16 ) ) ;
#164 = CARTESIAN_POINT ( 'NONE',  ( 1.096919613467953467E-14, -3.847476080168833854E-16, 3.141702638546556070 ) ) ;
#165 = CARTESIAN_POINT ( 'NONE',  ( 1.316288464743861212E-13, -4.616918432785521081E-15, 37.69999999999999574 ) ) ;
#166 = ADVANCED_FACE ( 'NONE', ( #196, #78 ), #162, .T. ) ;
#167 = CARTESIAN_POINT ( 'NONE',  ( 1.096919613467953467E-14, 1.499999999999999778, 3.141702638546556070 ) ) ;
#168 = FACE_OUTER_BOUND ( 'NONE', #161, .T. ) ;
#169 = CC_DESIGN_DATE_AND_TIME_ASSIGNMENT ( #53, #19, ( #159 ) ) ;
#170 = LOCAL_TIME ( 11, 26, 20.00000000000000000, #90 ) ;
#171 = VERTEX_POINT ( 'NONE', #1 ) ;
#172 = PERSON_AND_ORGANIZATION ( #191, #128 ) ;
#173 = CALENDAR_DATE ( 2021, 22, 11 ) ;
#174 = PERSON_AND_ORGANIZATION ( #191, #128 ) ;
#175 = APPROVAL_STATUS ( 'not_yet_approved' ) ;
#176 = DATE_AND_TIME ( #20, #170 ) ;
#177 = EDGE_LOOP ( 'NONE', ( #23 ) ) ;
#178 = EDGE_CURVE ( 'NONE', #2, #2, #7, .T. ) ;
#179 = CIRCLE ( 'NONE', #62, 1.500000000000000222 ) ;
#180 = FACE_OUTER_BOUND ( 'NONE', #26, .T. ) ;
#181 = AXIS2_PLACEMENT_3D ( 'NONE', #202, #66, #163 ) ;
#182 = PLANE ( 'NONE',  #181 ) ;
#183 = VERTEX_POINT ( 'NONE', #48 ) ;
#184 = DIRECTION ( 'NONE',  ( 0.0000000000000000000, -1.000000000000000000, 0.0000000000000000000 ) ) ;
#185 = AXIS2_PLACEMENT_3D ( 'NONE', #165, #46, #112 ) ;
#186 = APPROVAL_STATUS ( 'not_yet_approved' ) ;
#187 = ADVANCED_FACE ( 'NONE', ( #154 ), #80, .F. ) ;
#188 = CALENDAR_DATE ( 2021, 22, 11 ) ;
#189 = APPROVAL_STATUS ( 'not_yet_approved' ) ;
#190 = FACE_BOUND ( 'NONE', #102, .T. ) ;
#191 = PERSON ( 'UNSPECIFIED', 'UNSPECIFIED', 'UNSPECIFIED', ('UNSPECIFIED'), ('UNSPECIFIED'), ('UNSPECIFIED') ) ;
#192 = AXIS2_PLACEMENT_3D ( 'NONE', #129, #32, #69 ) ;
#193 = AXIS2_PLACEMENT_3D ( 'NONE', #200, #76, #127 ) ;
#194 = ORIENTED_EDGE ( 'NONE', *, *, #119, .T. ) ;
#195 = ORIENTED_EDGE ( 'NONE', *, *, #151, .T. ) ;
#196 = FACE_BOUND ( 'NONE', #146, .T. ) ;
#197 = CIRCLE ( 'NONE', #65, 0.03500000000000025313 ) ;
#198 = MANIFOLD_SOLID_BREP ( 'Corps-Déplacer/Copier1[1]', #87 ) ;
#199 = DIRECTION ( 'NONE',  ( -3.491481338843133355E-15, 1.224646799147353207E-16, -1.000000000000000000 ) ) ;
#200 = CARTESIAN_POINT ( 'NONE',  ( 1.326762908760390423E-13, 8.998558695971078593E-33, 38.00000000000000000 ) ) ;
#201 = MANIFOLD_SOLID_BREP ( 'Corps-Déplacer/Copier1[2]', #10 ) ;
#202 = CARTESIAN_POINT ( 'NONE',  ( 1.096919613467953309E-14, -9.083308869374977500E-16, 3.141702638546555626 ) ) ;
#203 = APPROVAL_PERSON_ORGANIZATION ( #97, #70, #52 ) ;
ENDSEC;
END-ISO-10303-21;
