ISO-10303-21;
HEADER;
FILE_DESCRIPTION (( 'STEP AP203' ),
    '1' );
FILE_NAME ('326691.step',
    '2021-11-22T10:26:19',
    ( '' ),
    ( '' ),
    'SwSTEP 2.0',
    'SolidWorks 2019',
    '' );
FILE_SCHEMA (( 'CONFIG_CONTROL_DESIGN' ));
ENDSEC;

DATA;
#1 = AXIS2_PLACEMENT_3D ( 'NONE', #46, #82, #61 ) ;
#2 = CARTESIAN_POINT ( 'NONE',  ( -2.365919782978951696E-32, 0.02499999999999977240, -6.776263578034402713E-18 ) ) ;
#3 = DIRECTION ( 'NONE',  ( 0.0000000000000000000, 1.000000000000000000, 0.0000000000000000000 ) ) ;
#4 = MANIFOLD_SOLID_BREP ( 'Corps-Déplacer/Copier1[2]', #64 ) ;
#5 = CARTESIAN_POINT ( 'NONE',  ( 1.104407119361932716E-14, 1.499999999999999556, 3.163147707751652327 ) ) ;
#6 = AXIS2_PLACEMENT_3D ( 'NONE', #65, #48, #45 ) ;
#7 = FACE_BOUND ( 'NONE', #28, .T. ) ;
#8 = SECURITY_CLASSIFICATION_LEVEL ( 'unclassified' ) ;
#9 = DIRECTION ( 'NONE',  ( 4.275831445896958607E-31, 1.000000000000000000, 1.224646799147353207E-16 ) ) ;
#10 = APPROVAL_DATE_TIME ( #23, #132 ) ;
#11 = LOCAL_TIME ( 11, 26, 19.00000000000000000, #128 ) ;
#12 = APPROVAL_DATE_TIME ( #42, #148 ) ;
#13 = APPLICATION_CONTEXT ( 'configuration controlled 3d designs of mechanical parts and assemblies' ) ;
#14 = ADVANCED_FACE ( 'NONE', ( #49 ), #156, .T. ) ;
#15 = ADVANCED_FACE ( 'NONE', ( #174 ), #52, .F. ) ;
#16 = PRODUCT_DEFINITION ( 'UNKNOWN', '', #38, #39 ) ;
#17 = VERTEX_POINT ( 'NONE', #138 ) ;
#18 = CC_DESIGN_PERSON_AND_ORGANIZATION_ASSIGNMENT ( #95, #100, ( #38 ) ) ;
#19 = CARTESIAN_POINT ( 'NONE',  ( 1.316288464743861212E-13, -4.616918432785521081E-15, 37.69999999999999574 ) ) ;
#20 = ORGANIZATION ( 'UNSPECIFIED', 'UNSPECIFIED', '' ) ;
#21 =( NAMED_UNIT ( * ) PLANE_ANGLE_UNIT ( ) SI_UNIT ( $, .RADIAN. ) );
#22 = CC_DESIGN_PERSON_AND_ORGANIZATION_ASSIGNMENT ( #114, #53, ( #38 ) ) ;
#23 = DATE_AND_TIME ( #125, #198 ) ;
#24 = CIRCLE ( 'NONE', #79, 1.500000000000000000 ) ;
#25 = COORDINATED_UNIVERSAL_TIME_OFFSET ( 1, 0, .AHEAD. ) ;
#26 = DATE_TIME_ROLE ( 'classification_date' ) ;
#27 = PRODUCT_RELATED_PRODUCT_CATEGORY ( 'detail', '', ( #78 ) ) ;
#28 = EDGE_LOOP ( 'NONE', ( #106 ) ) ;
#29 = EDGE_LOOP ( 'NONE', ( #184 ) ) ;
#30 = DIRECTION ( 'NONE',  ( -4.275831445896958607E-31, -1.000000000000000000, -1.224646799147353207E-16 ) ) ;
#31 = ADVANCED_FACE ( 'NONE', ( #92 ), #129, .F. ) ;
#32 = CARTESIAN_POINT ( 'NONE',  ( 1.316288464743861212E-13, -4.616918432785521081E-15, 37.69999999999999574 ) ) ;
#33 = AXIS2_PLACEMENT_3D ( 'NONE', #116, #145, #98 ) ;
#34 = DIRECTION ( 'NONE',  ( -3.491481338843133355E-15, 1.224646799147353207E-16, -1.000000000000000000 ) ) ;
#35 = CARTESIAN_POINT ( 'NONE',  ( 0.0000000000000000000, 0.0000000000000000000, 0.0000000000000000000 ) ) ;
#36 = EDGE_CURVE ( 'NONE', #94, #94, #172, .T. ) ;
#37 = CARTESIAN_POINT ( 'NONE',  ( 1.316288464743861212E-13, 1.499999999999995559, 37.69999999999999574 ) ) ;
#38 = PRODUCT_DEFINITION_FORMATION_WITH_SPECIFIED_SOURCE ( 'ANY', '', #78, .NOT_KNOWN. ) ;
#39 = DESIGN_CONTEXT ( 'detailed design', #13, 'design' ) ;
#40 = PERSON_AND_ORGANIZATION_ROLE ( 'creator' ) ;
#41 = DATE_AND_TIME ( #182, #74 ) ;
#42 = DATE_AND_TIME ( #162, #87 ) ;
#43 = PERSON_AND_ORGANIZATION ( #189, #20 ) ;
#44 = CC_DESIGN_DATE_AND_TIME_ASSIGNMENT ( #202, #26, ( #167 ) ) ;
#45 = DIRECTION ( 'NONE',  ( 0.0000000000000000000, -1.000000000000000000, 0.0000000000000000000 ) ) ;
#46 = CARTESIAN_POINT ( 'NONE',  ( 1.104407119361932716E-14, -3.873738715528348412E-16, 3.163147707751652327 ) ) ;
#47 = EDGE_LOOP ( 'NONE', ( #110 ) ) ;
#48 = DIRECTION ( 'NONE',  ( 3.491481338843133355E-15, -1.224646799147353207E-16, 1.000000000000000000 ) ) ;
#49 = FACE_OUTER_BOUND ( 'NONE', #76, .T. ) ;
#50 = AXIS2_PLACEMENT_3D ( 'NONE', #200, #185, #84 ) ;
#51 = CARTESIAN_POINT ( 'NONE',  ( 1.104407119361932716E-14, 1.124819836996392658E-32, 3.163147707751652327 ) ) ;
#52 = PLANE ( 'NONE',  #88 ) ;
#53 = PERSON_AND_ORGANIZATION_ROLE ( 'design_supplier' ) ;
#54 = APPLICATION_CONTEXT ( 'configuration controlled 3d designs of mechanical parts and assemblies' ) ;
#55 = PERSON_AND_ORGANIZATION ( #189, #20 ) ;
#56 = AXIS2_PLACEMENT_3D ( 'NONE', #19, #186, #175 ) ;
#57 = CALENDAR_DATE ( 2021, 22, 11 ) ;
#58 = APPROVAL ( #197, 'UNSPECIFIED' ) ;
#59 = ADVANCED_FACE ( 'NONE', ( #178 ), #109, .F. ) ;
#60 = EDGE_CURVE ( 'NONE', #196, #196, #139, .T. ) ;
#61 = DIRECTION ( 'NONE',  ( 0.0000000000000000000, 1.000000000000000000, 0.0000000000000000000 ) ) ;
#62 = APPLICATION_PROTOCOL_DEFINITION ( 'international standard', 'config_control_design', 1994, #54 ) ;
#63 = EDGE_LOOP ( 'NONE', ( #169 ) ) ;
#64 = CLOSED_SHELL ( 'NONE', ( #31, #101, #14 ) ) ;
#65 = CARTESIAN_POINT ( 'NONE',  ( 1.104407119361932716E-14, -3.873738715528348412E-16, 3.163147707751652327 ) ) ;
#66 = ORIENTED_EDGE ( 'NONE', *, *, #193, .F. ) ;
#67 = COORDINATED_UNIVERSAL_TIME_OFFSET ( 1, 0, .AHEAD. ) ;
#68 = PERSON_AND_ORGANIZATION_ROLE ( 'design_owner' ) ;
#69 = AXIS2_PLACEMENT_3D ( 'NONE', #90, #155, #160 ) ;
#70 = PERSON_AND_ORGANIZATION ( #189, #20 ) ;
#71 = MANIFOLD_SOLID_BREP ( 'Corps-Déplacer/Copier1[1]', #183 ) ;
#72 = COORDINATED_UNIVERSAL_TIME_OFFSET ( 1, 0, .AHEAD. ) ;
#73 = APPLICATION_PROTOCOL_DEFINITION ( 'international standard', 'config_control_design', 1994, #13 ) ;
#74 = LOCAL_TIME ( 11, 26, 19.00000000000000000, #72 ) ;
#75 = EDGE_CURVE ( 'NONE', #83, #83, #24, .T. ) ;
#76 = EDGE_LOOP ( 'NONE', ( #105 ) ) ;
#77 = CIRCLE ( 'NONE', #69, 1.200000000000000178 ) ;
#78 = PRODUCT ( '326691', '326691', '', ( #97 ) ) ;
#79 = AXIS2_PLACEMENT_3D ( 'NONE', #123, #158, #112 ) ;
#80 = ADVANCED_BREP_SHAPE_REPRESENTATION ( '326691', ( #71, #4, #33 ), #203 ) ;
#81 = LOCAL_TIME ( 11, 26, 19.00000000000000000, #147 ) ;
#82 = DIRECTION ( 'NONE',  ( -3.491481338843133355E-15, 1.224646799147353207E-16, -1.000000000000000000 ) ) ;
#83 = VERTEX_POINT ( 'NONE', #5 ) ;
#84 = DIRECTION ( 'NONE',  ( -4.275831445896958607E-31, -1.000000000000000000, -1.224646799147353207E-16 ) ) ;
#85 = PERSON_AND_ORGANIZATION ( #189, #20 ) ;
#86 = EDGE_LOOP ( 'NONE', ( #66 ) ) ;
#87 = LOCAL_TIME ( 11, 26, 19.00000000000000000, #25 ) ;
#88 = AXIS2_PLACEMENT_3D ( 'NONE', #177, #120, #9 ) ;
#89 = EDGE_LOOP ( 'NONE', ( #133 ) ) ;
#90 = CARTESIAN_POINT ( 'NONE',  ( 1.326762908760390423E-13, -4.653657836759941941E-15, 38.00000000000000000 ) ) ;
#91 = AXIS2_PLACEMENT_3D ( 'NONE', #134, #152, #135 ) ;
#92 = FACE_OUTER_BOUND ( 'NONE', #143, .T. ) ;
#93 = DIRECTION ( 'NONE',  ( 4.275831445896959482E-31, 1.000000000000000000, 1.224646799147353207E-16 ) ) ;
#94 = VERTEX_POINT ( 'NONE', #157 ) ;
#95 = PERSON_AND_ORGANIZATION ( #189, #20 ) ;
#96 = CC_DESIGN_PERSON_AND_ORGANIZATION_ASSIGNMENT ( #142, #161, ( #167 ) ) ;
#97 = MECHANICAL_CONTEXT ( 'NONE', #54, 'mechanical' ) ;
#98 = DIRECTION ( 'NONE',  ( 1.000000000000000000, 0.0000000000000000000, 0.0000000000000000000 ) ) ;
#99 = CONICAL_SURFACE ( 'NONE', #56, 1.500000000000000000, 0.7853981633974453924 ) ;
#100 = PERSON_AND_ORGANIZATION_ROLE ( 'creator' ) ;
#101 = ADVANCED_FACE ( 'NONE', ( #171, #140 ), #192, .T. ) ;
#102 = APPROVAL_STATUS ( 'not_yet_approved' ) ;
#103 = APPROVAL_PERSON_ORGANIZATION ( #43, #132, #165 ) ;
#104 = CC_DESIGN_SECURITY_CLASSIFICATION ( #167, ( #38 ) ) ;
#105 = ORIENTED_EDGE ( 'NONE', *, *, #75, .F. ) ;
#106 = ORIENTED_EDGE ( 'NONE', *, *, #166, .T. ) ;
#107 =( NAMED_UNIT ( * ) SI_UNIT ( $, .STERADIAN. ) SOLID_ANGLE_UNIT ( ) );
#108 = CC_DESIGN_DATE_AND_TIME_ASSIGNMENT ( #41, #118, ( #16 ) ) ;
#109 = PLANE ( 'NONE',  #154 ) ;
#110 = ORIENTED_EDGE ( 'NONE', *, *, #60, .T. ) ;
#111 = FACE_OUTER_BOUND ( 'NONE', #187, .T. ) ;
#112 = DIRECTION ( 'NONE',  ( 0.0000000000000000000, 1.000000000000000000, 0.0000000000000000000 ) ) ;
#113 = FACE_OUTER_BOUND ( 'NONE', #89, .T. ) ;
#114 = PERSON_AND_ORGANIZATION ( #189, #20 ) ;
#115 = CC_DESIGN_APPROVAL ( #148, ( #38 ) ) ;
#116 = CARTESIAN_POINT ( 'NONE',  ( 0.0000000000000000000, 0.0000000000000000000, 0.0000000000000000000 ) ) ;
#117 = APPROVAL_ROLE ( '' ) ;
#118 = DATE_TIME_ROLE ( 'creation_date' ) ;
#119 = AXIS2_PLACEMENT_3D ( 'NONE', #32, #188, #3 ) ;
#120 = DIRECTION ( 'NONE',  ( -3.491481338843133355E-15, 1.224646799147353207E-16, -1.000000000000000000 ) ) ;
#121 =( LENGTH_UNIT ( ) NAMED_UNIT ( * ) SI_UNIT ( .MILLI., .METRE. ) );
#122 = DIRECTION ( 'NONE',  ( 3.491481338843133355E-15, -1.224646799147353207E-16, 1.000000000000000000 ) ) ;
#123 = CARTESIAN_POINT ( 'NONE',  ( 1.104407119361932716E-14, -3.873738715528348412E-16, 3.163147707751652327 ) ) ;
#124 = FACE_OUTER_BOUND ( 'NONE', #47, .T. ) ;
#125 = CALENDAR_DATE ( 2021, 22, 11 ) ;
#126 = EDGE_LOOP ( 'NONE', ( #153 ) ) ;
#127 = SHAPE_DEFINITION_REPRESENTATION ( #150, #80 ) ;
#128 = COORDINATED_UNIVERSAL_TIME_OFFSET ( 1, 0, .AHEAD. ) ;
#129 = PLANE ( 'NONE',  #50 ) ;
#130 = AXIS2_PLACEMENT_3D ( 'NONE', #195, #122, #190 ) ;
#131 = ADVANCED_FACE ( 'NONE', ( #7, #113 ), #99, .T. ) ;
#132 = APPROVAL ( #102, 'UNSPECIFIED' ) ;
#133 = ORIENTED_EDGE ( 'NONE', *, *, #60, .F. ) ;
#134 = CARTESIAN_POINT ( 'NONE',  ( -3.434877644453181659E-32, 1.204792895767323054E-33, -9.837880575902757381E-18 ) ) ;
#135 = DIRECTION ( 'NONE',  ( 4.275831445896958607E-31, 1.000000000000000000, 1.224646799147352961E-16 ) ) ;
#136 = VERTEX_POINT ( 'NONE', #2 ) ;
#137 = ORIENTED_EDGE ( 'NONE', *, *, #36, .F. ) ;
#138 = CARTESIAN_POINT ( 'NONE',  ( 1.326762908760390423E-13, 1.199999999999995515, 38.00000000000000000 ) ) ;
#139 = CIRCLE ( 'NONE', #119, 1.500000000000000000 ) ;
#140 = FACE_OUTER_BOUND ( 'NONE', #126, .T. ) ;
#141 = UNCERTAINTY_MEASURE_WITH_UNIT (LENGTH_MEASURE( 1.000000000000000082E-05 ), #121, 'distance_accuracy_value', 'NONE');
#142 = PERSON_AND_ORGANIZATION ( #189, #20 ) ;
#143 = EDGE_LOOP ( 'NONE', ( #151 ) ) ;
#144 = CC_DESIGN_PERSON_AND_ORGANIZATION_ASSIGNMENT ( #180, #40, ( #16 ) ) ;
#145 = DIRECTION ( 'NONE',  ( 0.0000000000000000000, 0.0000000000000000000, 1.000000000000000000 ) ) ;
#146 = APPROVAL_PERSON_ORGANIZATION ( #70, #58, #117 ) ;
#147 = COORDINATED_UNIVERSAL_TIME_OFFSET ( 1, 0, .AHEAD. ) ;
#148 = APPROVAL ( #163, 'UNSPECIFIED' ) ;
#149 = APPROVAL_PERSON_ORGANIZATION ( #55, #148, #181 ) ;
#150 = PRODUCT_DEFINITION_SHAPE ( 'NONE', 'NONE',  #16 ) ;
#151 = ORIENTED_EDGE ( 'NONE', *, *, #193, .T. ) ;
#152 = DIRECTION ( 'NONE',  ( -3.491481338843133355E-15, 1.224646799147353207E-16, -1.000000000000000000 ) ) ;
#153 = ORIENTED_EDGE ( 'NONE', *, *, #75, .T. ) ;
#154 = AXIS2_PLACEMENT_3D ( 'NONE', #51, #173, #30 ) ;
#155 = DIRECTION ( 'NONE',  ( -3.491481338843133355E-15, 1.224646799147353207E-16, -1.000000000000000000 ) ) ;
#156 = PLANE ( 'NONE',  #130 ) ;
#157 = CARTESIAN_POINT ( 'NONE',  ( 1.104407119361932716E-14, 1.499999999999999556, 3.163147707751652327 ) ) ;
#158 = DIRECTION ( 'NONE',  ( -3.491481338843133355E-15, 1.224646799147353207E-16, -1.000000000000000000 ) ) ;
#159 = CC_DESIGN_APPROVAL ( #58, ( #16 ) ) ;
#160 = DIRECTION ( 'NONE',  ( 0.0000000000000000000, 1.000000000000000000, 0.0000000000000000000 ) ) ;
#161 = PERSON_AND_ORGANIZATION_ROLE ( 'classification_officer' ) ;
#162 = CALENDAR_DATE ( 2021, 22, 11 ) ;
#163 = APPROVAL_STATUS ( 'not_yet_approved' ) ;
#164 = CALENDAR_DATE ( 2021, 22, 11 ) ;
#165 = APPROVAL_ROLE ( '' ) ;
#166 = EDGE_CURVE ( 'NONE', #17, #17, #77, .T. ) ;
#167 = SECURITY_CLASSIFICATION ( '', '', #8 ) ;
#168 = CC_DESIGN_APPROVAL ( #132, ( #167 ) ) ;
#169 = ORIENTED_EDGE ( 'NONE', *, *, #36, .T. ) ;
#170 = CC_DESIGN_PERSON_AND_ORGANIZATION_ASSIGNMENT ( #85, #68, ( #78 ) ) ;
#171 = FACE_BOUND ( 'NONE', #86, .T. ) ;
#172 = CIRCLE ( 'NONE', #1, 1.500000000000000000 ) ;
#173 = DIRECTION ( 'NONE',  ( 3.491481338843133355E-15, -1.224646799147353207E-16, 1.000000000000000000 ) ) ;
#174 = FACE_OUTER_BOUND ( 'NONE', #29, .T. ) ;
#175 = DIRECTION ( 'NONE',  ( 0.0000000000000000000, 1.000000000000000000, 0.0000000000000000000 ) ) ;
#176 = ADVANCED_FACE ( 'NONE', ( #124, #111 ), #194, .T. ) ;
#177 = CARTESIAN_POINT ( 'NONE',  ( 1.326762908760390423E-13, 8.998558695971078593E-33, 38.00000000000000000 ) ) ;
#178 = FACE_OUTER_BOUND ( 'NONE', #63, .T. ) ;
#179 = AXIS2_PLACEMENT_3D ( 'NONE', #35, #34, #93 ) ;
#180 = PERSON_AND_ORGANIZATION ( #189, #20 ) ;
#181 = APPROVAL_ROLE ( '' ) ;
#182 = CALENDAR_DATE ( 2021, 22, 11 ) ;
#183 = CLOSED_SHELL ( 'NONE', ( #59, #176, #131, #15 ) ) ;
#184 = ORIENTED_EDGE ( 'NONE', *, *, #166, .F. ) ;
#185 = DIRECTION ( 'NONE',  ( 3.491481338843133355E-15, -1.224646799147353207E-16, 1.000000000000000000 ) ) ;
#186 = DIRECTION ( 'NONE',  ( -3.491481338843133355E-15, 1.224646799147353207E-16, -1.000000000000000000 ) ) ;
#187 = EDGE_LOOP ( 'NONE', ( #137 ) ) ;
#188 = DIRECTION ( 'NONE',  ( -3.491481338843133355E-15, 1.224646799147353207E-16, -1.000000000000000000 ) ) ;
#189 = PERSON ( 'UNSPECIFIED', 'UNSPECIFIED', 'UNSPECIFIED', ('UNSPECIFIED'), ('UNSPECIFIED'), ('UNSPECIFIED') ) ;
#190 = DIRECTION ( 'NONE',  ( -4.275831445896958607E-31, -1.000000000000000000, -1.224646799147353207E-16 ) ) ;
#191 = CIRCLE ( 'NONE', #91, 0.02499999999999977240 ) ;
#192 = CONICAL_SURFACE ( 'NONE', #6, 1.500000000000000000, 0.4363323129985759996 ) ;
#193 = EDGE_CURVE ( 'NONE', #136, #136, #191, .T. ) ;
#194 = CYLINDRICAL_SURFACE ( 'NONE', #179, 1.500000000000000000 ) ;
#195 = CARTESIAN_POINT ( 'NONE',  ( 1.104407119361932716E-14, 1.124819836996392658E-32, 3.163147707751652327 ) ) ;
#196 = VERTEX_POINT ( 'NONE', #37 ) ;
#197 = APPROVAL_STATUS ( 'not_yet_approved' ) ;
#198 = LOCAL_TIME ( 11, 26, 19.00000000000000000, #67 ) ;
#199 = APPROVAL_DATE_TIME ( #201, #58 ) ;
#200 = CARTESIAN_POINT ( 'NONE',  ( -1.717438822226590829E-32, 6.023964478836615271E-34, -4.918940287951378690E-18 ) ) ;
#201 = DATE_AND_TIME ( #57, #11 ) ;
#202 = DATE_AND_TIME ( #164, #81 ) ;
#203 =( GEOMETRIC_REPRESENTATION_CONTEXT ( 3 ) GLOBAL_UNCERTAINTY_ASSIGNED_CONTEXT ( ( #141 ) ) GLOBAL_UNIT_ASSIGNED_CONTEXT ( ( #121, #21, #107 ) ) REPRESENTATION_CONTEXT ( 'NONE', 'WORKASPACE' ) );
ENDSEC;
END-ISO-10303-21;
