ISO-10303-21;
HEADER;
FILE_DESCRIPTION (( 'STEP AP203' ),
    '1' );
FILE_NAME ('326690.step',
    '2021-11-22T10:26:19',
    ( '' ),
    ( '' ),
    'SwSTEP 2.0',
    'SolidWorks 2019',
    '' );
FILE_SCHEMA (( 'CONFIG_CONTROL_DESIGN' ));
ENDSEC;

DATA;
#1 = DIRECTION ( 'NONE',  ( 4.275831445896958607E-31, 1.000000000000000000, 1.224646799147353207E-16 ) ) ;
#2 = CC_DESIGN_APPROVAL ( #183, ( #94 ) ) ;
#3 = MANIFOLD_SOLID_BREP ( 'Corps-Déplacer/Copier1[2]', #167 ) ;
#4 = DESIGN_CONTEXT ( 'detailed design', #29, 'design' ) ;
#5 = APPROVAL_DATE_TIME ( #88, #183 ) ;
#6 = ORGANIZATION ( 'UNSPECIFIED', 'UNSPECIFIED', '' ) ;
#7 = CARTESIAN_POINT ( 'NONE',  ( 1.366969174795941440E-14, 1.499999999999999112, 3.915155322722912778 ) ) ;
#8 = CARTESIAN_POINT ( 'NONE',  ( 1.316288464743861212E-13, 1.499999999999995559, 37.69999999999999574 ) ) ;
#9 = EDGE_CURVE ( 'NONE', #180, #180, #18, .T. ) ;
#10 = MECHANICAL_CONTEXT ( 'NONE', #150, 'mechanical' ) ;
#11 = AXIS2_PLACEMENT_3D ( 'NONE', #69, #99, #55 ) ;
#12 = DATE_AND_TIME ( #78, #67 ) ;
#13 = CALENDAR_DATE ( 2021, 22, 11 ) ;
#14 = DATE_TIME_ROLE ( 'creation_date' ) ;
#15 = CC_DESIGN_APPROVAL ( #71, ( #200 ) ) ;
#16 = DATE_AND_TIME ( #114, #182 ) ;
#17 = FACE_OUTER_BOUND ( 'NONE', #174, .T. ) ;
#18 = CIRCLE ( 'NONE', #11, 1.499999999999999556 ) ;
#19 = DIRECTION ( 'NONE',  ( 0.0000000000000000000, 1.000000000000000000, 0.0000000000000000000 ) ) ;
#20 = EDGE_CURVE ( 'NONE', #44, #44, #124, .T. ) ;
#21 = DIRECTION ( 'NONE',  ( -4.275831445896958607E-31, -1.000000000000000000, -1.224646799147353207E-16 ) ) ;
#22 = CARTESIAN_POINT ( 'NONE',  ( 1.366969174795941440E-14, -4.794682434137337408E-16, 3.915155322722912778 ) ) ;
#23 = EDGE_LOOP ( 'NONE', ( #157 ) ) ;
#24 = PERSON_AND_ORGANIZATION ( #96, #6 ) ;
#25 = PRODUCT_RELATED_PRODUCT_CATEGORY ( 'detail', '', ( #188 ) ) ;
#26 = DIRECTION ( 'NONE',  ( 1.000000000000000000, 0.0000000000000000000, 0.0000000000000000000 ) ) ;
#27 = VERTEX_POINT ( 'NONE', #8 ) ;
#28 = COORDINATED_UNIVERSAL_TIME_OFFSET ( 1, 0, .AHEAD. ) ;
#29 = APPLICATION_CONTEXT ( 'configuration controlled 3d designs of mechanical parts and assemblies' ) ;
#30 = PERSON_AND_ORGANIZATION ( #96, #6 ) ;
#31 = SECURITY_CLASSIFICATION ( '', '', #64 ) ;
#32 = EDGE_LOOP ( 'NONE', ( #158 ) ) ;
#33 = EDGE_LOOP ( 'NONE', ( #143 ) ) ;
#34 = EDGE_CURVE ( 'NONE', #105, #105, #192, .T. ) ;
#35 = FACE_OUTER_BOUND ( 'NONE', #119, .T. ) ;
#36 = EDGE_LOOP ( 'NONE', ( #103 ) ) ;
#37 = EDGE_LOOP ( 'NONE', ( #131 ) ) ;
#38 = PERSON_AND_ORGANIZATION ( #96, #6 ) ;
#39 = LOCAL_TIME ( 11, 26, 19.00000000000000000, #195 ) ;
#40 = APPROVAL_STATUS ( 'not_yet_approved' ) ;
#41 = DIRECTION ( 'NONE',  ( -3.491481338843133355E-15, 1.224646799147353207E-16, -1.000000000000000000 ) ) ;
#42 = ADVANCED_FACE ( 'NONE', ( #142, #17 ), #80, .T. ) ;
#43 = CARTESIAN_POINT ( 'NONE',  ( 1.316288464743861212E-13, -4.616918432785521081E-15, 37.69999999999999574 ) ) ;
#44 = VERTEX_POINT ( 'NONE', #75 ) ;
#45 = DATE_AND_TIME ( #138, #50 ) ;
#46 = AXIS2_PLACEMENT_3D ( 'NONE', #68, #139, #170 ) ;
#47 = APPROVAL_PERSON_ORGANIZATION ( #61, #159, #97 ) ;
#48 = ADVANCED_FACE ( 'NONE', ( #120 ), #65, .F. ) ;
#49 = APPROVAL_DATE_TIME ( #151, #159 ) ;
#50 = LOCAL_TIME ( 11, 26, 19.00000000000000000, #28 ) ;
#51 = CARTESIAN_POINT ( 'NONE',  ( 1.326762908760390423E-13, 8.998558695971078593E-33, 38.00000000000000000 ) ) ;
#52 = PRODUCT_DEFINITION_SHAPE ( 'NONE', 'NONE',  #94 ) ;
#53 = DIRECTION ( 'NONE',  ( -3.491481338843133355E-15, 1.224646799147353207E-16, -1.000000000000000000 ) ) ;
#54 = AXIS2_PLACEMENT_3D ( 'NONE', #203, #133, #122 ) ;
#55 = DIRECTION ( 'NONE',  ( 0.0000000000000000000, 1.000000000000000000, 0.0000000000000000000 ) ) ;
#56 = DIRECTION ( 'NONE',  ( -3.491481338843133355E-15, 1.224646799147353207E-16, -1.000000000000000000 ) ) ;
#57 = CARTESIAN_POINT ( 'NONE',  ( -1.011956846466621321E-32, 3.549466809727309990E-34, -2.898359602293973310E-18 ) ) ;
#58 = CARTESIAN_POINT ( 'NONE',  ( 1.366969174795941440E-14, 1.499999999999999112, 3.915155322722912778 ) ) ;
#59 = PERSON_AND_ORGANIZATION ( #96, #6 ) ;
#60 = PERSON_AND_ORGANIZATION_ROLE ( 'design_supplier' ) ;
#61 = PERSON_AND_ORGANIZATION ( #96, #6 ) ;
#62 = PERSON_AND_ORGANIZATION_ROLE ( 'creator' ) ;
#63 = CC_DESIGN_PERSON_AND_ORGANIZATION_ASSIGNMENT ( #30, #60, ( #200 ) ) ;
#64 = SECURITY_CLASSIFICATION_LEVEL ( 'unclassified' ) ;
#65 = PLANE ( 'NONE',  #89 ) ;
#66 = CARTESIAN_POINT ( 'NONE',  ( 0.0000000000000000000, 0.0000000000000000000, 0.0000000000000000000 ) ) ;
#67 = LOCAL_TIME ( 11, 26, 19.00000000000000000, #184 ) ;
#68 = CARTESIAN_POINT ( 'NONE',  ( 1.316288464743861212E-13, -4.616918432785521081E-15, 37.69999999999999574 ) ) ;
#69 = CARTESIAN_POINT ( 'NONE',  ( 1.366969174795941440E-14, -4.794682434137337408E-16, 3.915155322722912778 ) ) ;
#70 = CALENDAR_DATE ( 2021, 22, 11 ) ;
#71 = APPROVAL ( #153, 'UNSPECIFIED' ) ;
#72 = AXIS2_PLACEMENT_3D ( 'NONE', #128, #155, #102 ) ;
#73 = PERSON_AND_ORGANIZATION ( #96, #6 ) ;
#74 = VERTEX_POINT ( 'NONE', #110 ) ;
#75 = CARTESIAN_POINT ( 'NONE',  ( 1.182959891489476121E-32, 0.07499999999999999722, 3.388131789017201356E-18 ) ) ;
#76 = CIRCLE ( 'NONE', #92, 1.200000000000000178 ) ;
#77 = CC_DESIGN_PERSON_AND_ORGANIZATION_ASSIGNMENT ( #181, #95, ( #200 ) ) ;
#78 = CALENDAR_DATE ( 2021, 22, 11 ) ;
#79 = FACE_OUTER_BOUND ( 'NONE', #23, .T. ) ;
#80 = CYLINDRICAL_SURFACE ( 'NONE', #134, 1.499999999999999778 ) ;
#81 = FACE_BOUND ( 'NONE', #36, .T. ) ;
#82 = ADVANCED_FACE ( 'NONE', ( #140, #79 ), #85, .T. ) ;
#83 = ORIENTED_EDGE ( 'NONE', *, *, #202, .T. ) ;
#84 = CONICAL_SURFACE ( 'NONE', #54, 1.499999999999999556, 0.3490658503988596228 ) ;
#85 = CONICAL_SURFACE ( 'NONE', #46, 1.500000000000000000, 0.7853981633974453924 ) ;
#86 = APPROVAL_ROLE ( '' ) ;
#87 = UNCERTAINTY_MEASURE_WITH_UNIT (LENGTH_MEASURE( 1.000000000000000082E-05 ), #148, 'distance_accuracy_value', 'NONE');
#88 = DATE_AND_TIME ( #70, #39 ) ;
#89 = AXIS2_PLACEMENT_3D ( 'NONE', #51, #115, #1 ) ;
#90 = PLANE ( 'NONE',  #196 ) ;
#91 =( NAMED_UNIT ( * ) PLANE_ANGLE_UNIT ( ) SI_UNIT ( $, .RADIAN. ) );
#92 = AXIS2_PLACEMENT_3D ( 'NONE', #191, #41, #145 ) ;
#93 = CC_DESIGN_SECURITY_CLASSIFICATION ( #31, ( #200 ) ) ;
#94 = PRODUCT_DEFINITION ( 'UNKNOWN', '', #200, #4 ) ;
#95 = PERSON_AND_ORGANIZATION_ROLE ( 'creator' ) ;
#96 = PERSON ( 'UNSPECIFIED', 'UNSPECIFIED', 'UNSPECIFIED', ('UNSPECIFIED'), ('UNSPECIFIED'), ('UNSPECIFIED') ) ;
#97 = APPROVAL_ROLE ( '' ) ;
#98 = COORDINATED_UNIVERSAL_TIME_OFFSET ( 1, 0, .AHEAD. ) ;
#99 = DIRECTION ( 'NONE',  ( -3.491481338843133355E-15, 1.224646799147353207E-16, -1.000000000000000000 ) ) ;
#100 = CARTESIAN_POINT ( 'NONE',  ( 1.366969174795941440E-14, 1.174693759830023048E-31, 3.915155322722912778 ) ) ;
#101 = ADVANCED_FACE ( 'NONE', ( #35 ), #187, .T. ) ;
#102 = DIRECTION ( 'NONE',  ( 4.275831445896958607E-31, 1.000000000000000000, 1.224646799147352961E-16 ) ) ;
#103 = ORIENTED_EDGE ( 'NONE', *, *, #20, .F. ) ;
#104 =( NAMED_UNIT ( * ) SI_UNIT ( $, .STERADIAN. ) SOLID_ANGLE_UNIT ( ) );
#105 = VERTEX_POINT ( 'NONE', #7 ) ;
#106 = DIRECTION ( 'NONE',  ( -4.275831445896958607E-31, -1.000000000000000000, -1.224646799147353207E-16 ) ) ;
#107 = CIRCLE ( 'NONE', #185, 1.500000000000000000 ) ;
#108 = DIRECTION ( 'NONE',  ( 3.491481338843133355E-15, -1.224646799147353207E-16, 1.000000000000000000 ) ) ;
#109 = AXIS2_PLACEMENT_3D ( 'NONE', #193, #177, #26 ) ;
#110 = CARTESIAN_POINT ( 'NONE',  ( 1.326762908760390423E-13, 1.199999999999995515, 38.00000000000000000 ) ) ;
#111 = CC_DESIGN_DATE_AND_TIME_ASSIGNMENT ( #12, #14, ( #94 ) ) ;
#112 = APPROVAL_DATE_TIME ( #16, #71 ) ;
#113 = DATE_TIME_ROLE ( 'classification_date' ) ;
#114 = CALENDAR_DATE ( 2021, 22, 11 ) ;
#115 = DIRECTION ( 'NONE',  ( -3.491481338843133355E-15, 1.224646799147353207E-16, -1.000000000000000000 ) ) ;
#116 = DIRECTION ( 'NONE',  ( 4.275831445896959482E-31, 1.000000000000000000, 1.224646799147353207E-16 ) ) ;
#117 = EDGE_LOOP ( 'NONE', ( #154 ) ) ;
#118 = CC_DESIGN_PERSON_AND_ORGANIZATION_ASSIGNMENT ( #73, #62, ( #94 ) ) ;
#119 = EDGE_LOOP ( 'NONE', ( #130 ) ) ;
#120 = FACE_OUTER_BOUND ( 'NONE', #37, .T. ) ;
#121 = LOCAL_TIME ( 11, 26, 19.00000000000000000, #98 ) ;
#122 = DIRECTION ( 'NONE',  ( 0.0000000000000000000, -1.000000000000000000, 0.0000000000000000000 ) ) ;
#123 = FACE_OUTER_BOUND ( 'NONE', #32, .T. ) ;
#124 = CIRCLE ( 'NONE', #72, 0.07499999999999999722 ) ;
#125 = APPROVAL_STATUS ( 'not_yet_approved' ) ;
#126 = COORDINATED_UNIVERSAL_TIME_OFFSET ( 1, 0, .AHEAD. ) ;
#127 =( GEOMETRIC_REPRESENTATION_CONTEXT ( 3 ) GLOBAL_UNCERTAINTY_ASSIGNED_CONTEXT ( ( #87 ) ) GLOBAL_UNIT_ASSIGNED_CONTEXT ( ( #148, #91, #104 ) ) REPRESENTATION_CONTEXT ( 'NONE', 'WORKASPACE' ) );
#128 = CARTESIAN_POINT ( 'NONE',  ( -2.023913692933242642E-32, 7.098933619454619981E-34, -5.796719204587946619E-18 ) ) ;
#129 = ADVANCED_FACE ( 'NONE', ( #81, #141 ), #84, .T. ) ;
#130 = ORIENTED_EDGE ( 'NONE', *, *, #9, .F. ) ;
#131 = ORIENTED_EDGE ( 'NONE', *, *, #202, .F. ) ;
#132 = AXIS2_PLACEMENT_3D ( 'NONE', #144, #147, #106 ) ;
#133 = DIRECTION ( 'NONE',  ( 3.491481338843133355E-15, -1.224646799147353207E-16, 1.000000000000000000 ) ) ;
#134 = AXIS2_PLACEMENT_3D ( 'NONE', #66, #56, #116 ) ;
#135 = APPLICATION_PROTOCOL_DEFINITION ( 'international standard', 'config_control_design', 1994, #150 ) ;
#136 = ADVANCED_FACE ( 'NONE', ( #178 ), #90, .F. ) ;
#137 = PERSON_AND_ORGANIZATION_ROLE ( 'design_owner' ) ;
#138 = CALENDAR_DATE ( 2021, 22, 11 ) ;
#139 = DIRECTION ( 'NONE',  ( -3.491481338843133355E-15, 1.224646799147353207E-16, -1.000000000000000000 ) ) ;
#140 = FACE_BOUND ( 'NONE', #186, .T. ) ;
#141 = FACE_OUTER_BOUND ( 'NONE', #117, .T. ) ;
#142 = FACE_OUTER_BOUND ( 'NONE', #33, .T. ) ;
#143 = ORIENTED_EDGE ( 'NONE', *, *, #163, .T. ) ;
#144 = CARTESIAN_POINT ( 'NONE',  ( 1.366969174795941440E-14, 1.174693759830023048E-31, 3.915155322722912778 ) ) ;
#145 = DIRECTION ( 'NONE',  ( 0.0000000000000000000, 1.000000000000000000, 0.0000000000000000000 ) ) ;
#146 = CC_DESIGN_DATE_AND_TIME_ASSIGNMENT ( #45, #113, ( #31 ) ) ;
#147 = DIRECTION ( 'NONE',  ( 3.491481338843133355E-15, -1.224646799147353207E-16, 1.000000000000000000 ) ) ;
#148 =( LENGTH_UNIT ( ) NAMED_UNIT ( * ) SI_UNIT ( .MILLI., .METRE. ) );
#149 = PLANE ( 'NONE',  #132 ) ;
#150 = APPLICATION_CONTEXT ( 'configuration controlled 3d designs of mechanical parts and assemblies' ) ;
#151 = DATE_AND_TIME ( #13, #121 ) ;
#152 = CC_DESIGN_PERSON_AND_ORGANIZATION_ASSIGNMENT ( #24, #137, ( #188 ) ) ;
#153 = APPROVAL_STATUS ( 'not_yet_approved' ) ;
#154 = ORIENTED_EDGE ( 'NONE', *, *, #9, .T. ) ;
#155 = DIRECTION ( 'NONE',  ( -3.491481338843133355E-15, 1.224646799147353207E-16, -1.000000000000000000 ) ) ;
#156 = DIRECTION ( 'NONE',  ( 3.491481338843133355E-15, -1.224646799147353207E-16, 1.000000000000000000 ) ) ;
#157 = ORIENTED_EDGE ( 'NONE', *, *, #163, .F. ) ;
#158 = ORIENTED_EDGE ( 'NONE', *, *, #34, .T. ) ;
#159 = APPROVAL ( #125, 'UNSPECIFIED' ) ;
#160 = DIRECTION ( 'NONE',  ( 0.0000000000000000000, 1.000000000000000000, 0.0000000000000000000 ) ) ;
#161 = DIRECTION ( 'NONE',  ( -4.275831445896958607E-31, -1.000000000000000000, -1.224646799147353207E-16 ) ) ;
#162 = PERSON_AND_ORGANIZATION_ROLE ( 'classification_officer' ) ;
#163 = EDGE_CURVE ( 'NONE', #27, #27, #107, .T. ) ;
#164 = APPROVAL_ROLE ( '' ) ;
#165 = AXIS2_PLACEMENT_3D ( 'NONE', #100, #156, #21 ) ;
#166 = SHAPE_DEFINITION_REPRESENTATION ( #52, #173 ) ;
#167 = CLOSED_SHELL ( 'NONE', ( #136, #129, #101 ) ) ;
#168 = ORIENTED_EDGE ( 'NONE', *, *, #20, .T. ) ;
#169 = EDGE_LOOP ( 'NONE', ( #168 ) ) ;
#170 = DIRECTION ( 'NONE',  ( 0.0000000000000000000, 1.000000000000000000, 0.0000000000000000000 ) ) ;
#171 = AXIS2_PLACEMENT_3D ( 'NONE', #22, #53, #19 ) ;
#172 = APPROVAL_PERSON_ORGANIZATION ( #38, #183, #86 ) ;
#173 = ADVANCED_BREP_SHAPE_REPRESENTATION ( '326690', ( #199, #3, #109 ), #127 ) ;
#174 = EDGE_LOOP ( 'NONE', ( #201 ) ) ;
#175 = ADVANCED_FACE ( 'NONE', ( #123 ), #149, .F. ) ;
#176 = APPLICATION_PROTOCOL_DEFINITION ( 'international standard', 'config_control_design', 1994, #29 ) ;
#177 = DIRECTION ( 'NONE',  ( 0.0000000000000000000, 0.0000000000000000000, 1.000000000000000000 ) ) ;
#178 = FACE_OUTER_BOUND ( 'NONE', #169, .T. ) ;
#179 = CC_DESIGN_APPROVAL ( #159, ( #31 ) ) ;
#180 = VERTEX_POINT ( 'NONE', #58 ) ;
#181 = PERSON_AND_ORGANIZATION ( #96, #6 ) ;
#182 = LOCAL_TIME ( 11, 26, 19.00000000000000000, #126 ) ;
#183 = APPROVAL ( #40, 'UNSPECIFIED' ) ;
#184 = COORDINATED_UNIVERSAL_TIME_OFFSET ( 1, 0, .AHEAD. ) ;
#185 = AXIS2_PLACEMENT_3D ( 'NONE', #43, #194, #160 ) ;
#186 = EDGE_LOOP ( 'NONE', ( #83 ) ) ;
#187 = PLANE ( 'NONE',  #165 ) ;
#188 = PRODUCT ( '326690', '326690', '', ( #10 ) ) ;
#189 = CLOSED_SHELL ( 'NONE', ( #175, #42, #82, #48 ) ) ;
#190 = APPROVAL_PERSON_ORGANIZATION ( #59, #71, #164 ) ;
#191 = CARTESIAN_POINT ( 'NONE',  ( 1.326762908760390423E-13, -4.653657836759941941E-15, 38.00000000000000000 ) ) ;
#192 = CIRCLE ( 'NONE', #171, 1.499999999999999556 ) ;
#193 = CARTESIAN_POINT ( 'NONE',  ( 0.0000000000000000000, 0.0000000000000000000, 0.0000000000000000000 ) ) ;
#194 = DIRECTION ( 'NONE',  ( -3.491481338843133355E-15, 1.224646799147353207E-16, -1.000000000000000000 ) ) ;
#195 = COORDINATED_UNIVERSAL_TIME_OFFSET ( 1, 0, .AHEAD. ) ;
#196 = AXIS2_PLACEMENT_3D ( 'NONE', #57, #108, #161 ) ;
#197 = PERSON_AND_ORGANIZATION ( #96, #6 ) ;
#198 = CC_DESIGN_PERSON_AND_ORGANIZATION_ASSIGNMENT ( #197, #162, ( #31 ) ) ;
#199 = MANIFOLD_SOLID_BREP ( 'Corps-Déplacer/Copier1[1]', #189 ) ;
#200 = PRODUCT_DEFINITION_FORMATION_WITH_SPECIFIED_SOURCE ( 'ANY', '', #188, .NOT_KNOWN. ) ;
#201 = ORIENTED_EDGE ( 'NONE', *, *, #34, .F. ) ;
#202 = EDGE_CURVE ( 'NONE', #74, #74, #76, .T. ) ;
#203 = CARTESIAN_POINT ( 'NONE',  ( 1.366969174795941440E-14, -4.794682434137337408E-16, 3.915155322722912778 ) ) ;
ENDSEC;
END-ISO-10303-21;
