ISO-10303-21;
HEADER;
FILE_DESCRIPTION (( 'STEP AP203' ),
    '1' );
FILE_NAME ('326689.step',
    '2021-11-22T10:26:18',
    ( '' ),
    ( '' ),
    'SwSTEP 2.0',
    'SolidWorks 2019',
    '' );
FILE_SCHEMA (( 'CONFIG_CONTROL_DESIGN' ));
ENDSEC;

DATA;
#1 = DIRECTION ( 'NONE',  ( 0.0000000000000000000, 1.000000000000000000, 0.0000000000000000000 ) ) ;
#2 = CARTESIAN_POINT ( 'NONE',  ( 1.316288464743861212E-13, -4.616918432785521081E-15, 37.69999999999999574 ) ) ;
#3 = EDGE_LOOP ( 'NONE', ( #111 ) ) ;
#4 = FACE_OUTER_BOUND ( 'NONE', #139, .T. ) ;
#5 = CARTESIAN_POINT ( 'NONE',  ( 1.390951090143238575E-14, -4.878799669823956792E-16, 3.983842258209278953 ) ) ;
#6 = APPLICATION_PROTOCOL_DEFINITION ( 'international standard', 'config_control_design', 1994, #9 ) ;
#7 =( NAMED_UNIT ( * ) PLANE_ANGLE_UNIT ( ) SI_UNIT ( $, .RADIAN. ) );
#8 = ORGANIZATION ( 'UNSPECIFIED', 'UNSPECIFIED', '' ) ;
#9 = APPLICATION_CONTEXT ( 'configuration controlled 3d designs of mechanical parts and assemblies' ) ;
#10 = APPLICATION_PROTOCOL_DEFINITION ( 'international standard', 'config_control_design', 1994, #183 ) ;
#11 = APPROVAL_PERSON_ORGANIZATION ( #191, #141, #54 ) ;
#12 = APPROVAL_STATUS ( 'not_yet_approved' ) ;
#13 = APPROVAL ( #107, 'UNSPECIFIED' ) ;
#14 = CC_DESIGN_APPROVAL ( #13, ( #81 ) ) ;
#15 = DIRECTION ( 'NONE',  ( 4.275831445896958607E-31, 1.000000000000000000, 1.224646799147353207E-16 ) ) ;
#16 = ORIENTED_EDGE ( 'NONE', *, *, #151, .F. ) ;
#17 = DIRECTION ( 'NONE',  ( 4.275831445896959482E-31, 1.000000000000000000, 1.224646799147353207E-16 ) ) ;
#18 = CC_DESIGN_SECURITY_CLASSIFICATION ( #91, ( #81 ) ) ;
#19 = PLANE ( 'NONE',  #93 ) ;
#20 = CARTESIAN_POINT ( 'NONE',  ( 1.390951090143238890E-14, 1.124819836996392658E-32, 3.983842258209279841 ) ) ;
#21 = DIRECTION ( 'NONE',  ( -3.491481338843133355E-15, 1.224646799147353207E-16, -1.000000000000000000 ) ) ;
#22 = DIRECTION ( 'NONE',  ( -3.491481338843133355E-15, 1.224646799147353207E-16, -1.000000000000000000 ) ) ;
#23 = PERSON_AND_ORGANIZATION ( #158, #8 ) ;
#24 = EDGE_CURVE ( 'NONE', #69, #69, #34, .T. ) ;
#25 = AXIS2_PLACEMENT_3D ( 'NONE', #20, #113, #33 ) ;
#26 = AXIS2_PLACEMENT_3D ( 'NONE', #57, #98, #61 ) ;
#27 = PERSON_AND_ORGANIZATION_ROLE ( 'design_supplier' ) ;
#28 = CARTESIAN_POINT ( 'NONE',  ( -9.549558314590066577E-33, 3.349534162799988791E-34, -2.735102206719573847E-18 ) ) ;
#29 = ORIENTED_EDGE ( 'NONE', *, *, #24, .F. ) ;
#30 = FACE_OUTER_BOUND ( 'NONE', #195, .T. ) ;
#31 = PRODUCT_DEFINITION ( 'UNKNOWN', '', #81, #90 ) ;
#32 = FACE_OUTER_BOUND ( 'NONE', #97, .T. ) ;
#33 = DIRECTION ( 'NONE',  ( -4.275831445896958607E-31, -1.000000000000000000, -1.224646799147353207E-16 ) ) ;
#34 = CIRCLE ( 'NONE', #155, 1.200000000000000178 ) ;
#35 = DIRECTION ( 'NONE',  ( -4.275831445896958607E-31, -1.000000000000000000, -1.224646799147353207E-16 ) ) ;
#36 = VERTEX_POINT ( 'NONE', #47 ) ;
#37 = PRODUCT_RELATED_PRODUCT_CATEGORY ( 'detail', '', ( #189 ) ) ;
#38 = CALENDAR_DATE ( 2021, 22, 11 ) ;
#39 = PERSON_AND_ORGANIZATION_ROLE ( 'creator' ) ;
#40 = ADVANCED_FACE ( 'NONE', ( #112 ), #44, .T. ) ;
#41 = CIRCLE ( 'NONE', #142, 1.500000000000000000 ) ;
#42 = CC_DESIGN_PERSON_AND_ORGANIZATION_ASSIGNMENT ( #70, #99, ( #189 ) ) ;
#43 = CARTESIAN_POINT ( 'NONE',  ( 1.326762908760390423E-13, -4.653657836759941941E-15, 38.00000000000000000 ) ) ;
#44 = PLANE ( 'NONE',  #25 ) ;
#45 = FACE_OUTER_BOUND ( 'NONE', #95, .T. ) ;
#46 = LOCAL_TIME ( 11, 26, 18.00000000000000000, #66 ) ;
#47 = CARTESIAN_POINT ( 'NONE',  ( 1.182959891489475848E-32, 0.05000000000000007910, 3.388131789017201356E-18 ) ) ;
#48 = DATE_TIME_ROLE ( 'creation_date' ) ;
#49 = CC_DESIGN_APPROVAL ( #141, ( #91 ) ) ;
#50 = CC_DESIGN_PERSON_AND_ORGANIZATION_ASSIGNMENT ( #23, #152, ( #91 ) ) ;
#51 = APPROVAL_ROLE ( '' ) ;
#52 = CC_DESIGN_PERSON_AND_ORGANIZATION_ASSIGNMENT ( #154, #39, ( #81 ) ) ;
#53 = AXIS2_PLACEMENT_3D ( 'NONE', #199, #22, #102 ) ;
#54 = APPROVAL_ROLE ( '' ) ;
#55 = CC_DESIGN_PERSON_AND_ORGANIZATION_ASSIGNMENT ( #138, #27, ( #81 ) ) ;
#56 = COORDINATED_UNIVERSAL_TIME_OFFSET ( 1, 0, .AHEAD. ) ;
#57 = CARTESIAN_POINT ( 'NONE',  ( 1.390951090143238575E-14, -4.878799669823956792E-16, 3.983842258209278953 ) ) ;
#58 = ADVANCED_FACE ( 'NONE', ( #140 ), #19, .F. ) ;
#59 = PLANE ( 'NONE',  #72 ) ;
#60 = DIRECTION ( 'NONE',  ( -4.275831445896958607E-31, -1.000000000000000000, -1.224646799147353207E-16 ) ) ;
#61 = DIRECTION ( 'NONE',  ( 0.0000000000000000000, -1.000000000000000000, 0.0000000000000000000 ) ) ;
#62 = APPROVAL ( #134, 'UNSPECIFIED' ) ;
#63 = DIRECTION ( 'NONE',  ( -3.491481338843133355E-15, 1.224646799147353207E-16, -1.000000000000000000 ) ) ;
#64 = MANIFOLD_SOLID_BREP ( 'Corps-Déplacer/Copier1[1]', #164 ) ;
#65 = MECHANICAL_CONTEXT ( 'NONE', #9, 'mechanical' ) ;
#66 = COORDINATED_UNIVERSAL_TIME_OFFSET ( 1, 0, .AHEAD. ) ;
#67 = MANIFOLD_SOLID_BREP ( 'Corps-Déplacer/Copier1[2]', #128 ) ;
#68 = ADVANCED_FACE ( 'NONE', ( #175, #4 ), #110, .T. ) ;
#69 = VERTEX_POINT ( 'NONE', #121 ) ;
#70 = PERSON_AND_ORGANIZATION ( #158, #8 ) ;
#71 = ADVANCED_FACE ( 'NONE', ( #32 ), #59, .F. ) ;
#72 = AXIS2_PLACEMENT_3D ( 'NONE', #161, #144, #60 ) ;
#73 = CIRCLE ( 'NONE', #196, 1.500000000000000000 ) ;
#74 = DATE_AND_TIME ( #202, #201 ) ;
#75 = CARTESIAN_POINT ( 'NONE',  ( 1.326762908760390423E-13, 8.998558695971078593E-33, 38.00000000000000000 ) ) ;
#76 = DIRECTION ( 'NONE',  ( -3.491481338843133355E-15, 1.224646799147353207E-16, -1.000000000000000000 ) ) ;
#77 = AXIS2_PLACEMENT_3D ( 'NONE', #28, #145, #78 ) ;
#78 = DIRECTION ( 'NONE',  ( 4.275831445896958607E-31, 1.000000000000000000, 1.224646799147353207E-16 ) ) ;
#79 = EDGE_LOOP ( 'NONE', ( #127 ) ) ;
#80 = CYLINDRICAL_SURFACE ( 'NONE', #174, 1.500000000000000000 ) ;
#81 = PRODUCT_DEFINITION_FORMATION_WITH_SPECIFIED_SOURCE ( 'ANY', '', #189, .NOT_KNOWN. ) ;
#82 = PERSON_AND_ORGANIZATION ( #158, #8 ) ;
#83 = DIRECTION ( 'NONE',  ( 0.0000000000000000000, 1.000000000000000000, 0.0000000000000000000 ) ) ;
#84 = ADVANCED_FACE ( 'NONE', ( #178, #30 ), #105, .T. ) ;
#85 = DIRECTION ( 'NONE',  ( 0.0000000000000000000, 0.0000000000000000000, 1.000000000000000000 ) ) ;
#86 = DATE_TIME_ROLE ( 'classification_date' ) ;
#87 = AXIS2_PLACEMENT_3D ( 'NONE', #117, #85, #122 ) ;
#88 = ADVANCED_FACE ( 'NONE', ( #45, #194 ), #80, .T. ) ;
#89 = SHAPE_DEFINITION_REPRESENTATION ( #120, #109 ) ;
#90 = DESIGN_CONTEXT ( 'detailed design', #183, 'design' ) ;
#91 = SECURITY_CLASSIFICATION ( '', '', #203 ) ;
#92 = EDGE_CURVE ( 'NONE', #36, #36, #165, .T. ) ;
#93 = AXIS2_PLACEMENT_3D ( 'NONE', #75, #94, #15 ) ;
#94 = DIRECTION ( 'NONE',  ( -3.491481338843133355E-15, 1.224646799147353207E-16, -1.000000000000000000 ) ) ;
#95 = EDGE_LOOP ( 'NONE', ( #126 ) ) ;
#96 = ORIENTED_EDGE ( 'NONE', *, *, #167, .T. ) ;
#97 = EDGE_LOOP ( 'NONE', ( #125 ) ) ;
#98 = DIRECTION ( 'NONE',  ( 3.491481338843133355E-15, -1.224646799147353207E-16, 1.000000000000000000 ) ) ;
#99 = PERSON_AND_ORGANIZATION_ROLE ( 'design_owner' ) ;
#100 = CARTESIAN_POINT ( 'NONE',  ( 1.390951090143238575E-14, 1.499999999999999556, 3.983842258209278953 ) ) ;
#101 = VERTEX_POINT ( 'NONE', #130 ) ;
#102 = DIRECTION ( 'NONE',  ( 0.0000000000000000000, 1.000000000000000000, 0.0000000000000000000 ) ) ;
#103 = APPROVAL_PERSON_ORGANIZATION ( #106, #13, #51 ) ;
#104 = UNCERTAINTY_MEASURE_WITH_UNIT (LENGTH_MEASURE( 1.000000000000000082E-05 ), #119, 'distance_accuracy_value', 'NONE');
#105 = CONICAL_SURFACE ( 'NONE', #26, 1.500000000000000000, 0.3490658503988596784 ) ;
#106 = PERSON_AND_ORGANIZATION ( #158, #8 ) ;
#107 = APPROVAL_STATUS ( 'not_yet_approved' ) ;
#108 = EDGE_CURVE ( 'NONE', #131, #131, #73, .T. ) ;
#109 = ADVANCED_BREP_SHAPE_REPRESENTATION ( '326689', ( #64, #67, #87 ), #136 ) ;
#110 = CONICAL_SURFACE ( 'NONE', #169, 1.500000000000000000, 0.7853981633974453924 ) ;
#111 = ORIENTED_EDGE ( 'NONE', *, *, #108, .F. ) ;
#112 = FACE_OUTER_BOUND ( 'NONE', #181, .T. ) ;
#113 = DIRECTION ( 'NONE',  ( 3.491481338843133355E-15, -1.224646799147353207E-16, 1.000000000000000000 ) ) ;
#114 = CC_DESIGN_DATE_AND_TIME_ASSIGNMENT ( #135, #86, ( #91 ) ) ;
#115 = LOCAL_TIME ( 11, 26, 18.00000000000000000, #56 ) ;
#116 = EDGE_LOOP ( 'NONE', ( #162 ) ) ;
#117 = CARTESIAN_POINT ( 'NONE',  ( 0.0000000000000000000, 0.0000000000000000000, 0.0000000000000000000 ) ) ;
#118 = PLANE ( 'NONE',  #176 ) ;
#119 =( LENGTH_UNIT ( ) NAMED_UNIT ( * ) SI_UNIT ( .MILLI., .METRE. ) );
#120 = PRODUCT_DEFINITION_SHAPE ( 'NONE', 'NONE',  #31 ) ;
#121 = CARTESIAN_POINT ( 'NONE',  ( 1.326762908760390423E-13, 1.199999999999995515, 38.00000000000000000 ) ) ;
#122 = DIRECTION ( 'NONE',  ( 1.000000000000000000, 0.0000000000000000000, 0.0000000000000000000 ) ) ;
#123 = APPROVAL_DATE_TIME ( #137, #13 ) ;
#124 = CARTESIAN_POINT ( 'NONE',  ( 0.0000000000000000000, 0.0000000000000000000, 0.0000000000000000000 ) ) ;
#125 = ORIENTED_EDGE ( 'NONE', *, *, #108, .T. ) ;
#126 = ORIENTED_EDGE ( 'NONE', *, *, #151, .T. ) ;
#127 = ORIENTED_EDGE ( 'NONE', *, *, #92, .F. ) ;
#128 = CLOSED_SHELL ( 'NONE', ( #146, #84, #40 ) ) ;
#129 = DIRECTION ( 'NONE',  ( 0.0000000000000000000, 1.000000000000000000, 0.0000000000000000000 ) ) ;
#130 = CARTESIAN_POINT ( 'NONE',  ( 1.316288464743861212E-13, 1.499999999999995559, 37.69999999999999574 ) ) ;
#131 = VERTEX_POINT ( 'NONE', #100 ) ;
#132 = CIRCLE ( 'NONE', #53, 1.500000000000000000 ) ;
#133 = DATE_AND_TIME ( #38, #147 ) ;
#134 = APPROVAL_STATUS ( 'not_yet_approved' ) ;
#135 = DATE_AND_TIME ( #172, #192 ) ;
#136 =( GEOMETRIC_REPRESENTATION_CONTEXT ( 3 ) GLOBAL_UNCERTAINTY_ASSIGNED_CONTEXT ( ( #104 ) ) GLOBAL_UNIT_ASSIGNED_CONTEXT ( ( #119, #7, #184 ) ) REPRESENTATION_CONTEXT ( 'NONE', 'WORKASPACE' ) );
#137 = DATE_AND_TIME ( #173, #115 ) ;
#138 = PERSON_AND_ORGANIZATION ( #158, #8 ) ;
#139 = EDGE_LOOP ( 'NONE', ( #16 ) ) ;
#140 = FACE_OUTER_BOUND ( 'NONE', #157, .T. ) ;
#141 = APPROVAL ( #12, 'UNSPECIFIED' ) ;
#142 = AXIS2_PLACEMENT_3D ( 'NONE', #148, #21, #83 ) ;
#143 = ORIENTED_EDGE ( 'NONE', *, *, #24, .T. ) ;
#144 = DIRECTION ( 'NONE',  ( 3.491481338843133355E-15, -1.224646799147353207E-16, 1.000000000000000000 ) ) ;
#145 = DIRECTION ( 'NONE',  ( -3.491481338843133355E-15, 1.224646799147353207E-16, -1.000000000000000000 ) ) ;
#146 = ADVANCED_FACE ( 'NONE', ( #150 ), #118, .F. ) ;
#147 = LOCAL_TIME ( 11, 26, 18.00000000000000000, #187 ) ;
#148 = CARTESIAN_POINT ( 'NONE',  ( 1.316288464743861212E-13, -4.616918432785521081E-15, 37.69999999999999574 ) ) ;
#149 = APPROVAL_ROLE ( '' ) ;
#150 = FACE_OUTER_BOUND ( 'NONE', #116, .T. ) ;
#151 = EDGE_CURVE ( 'NONE', #101, #101, #41, .T. ) ;
#152 = PERSON_AND_ORGANIZATION_ROLE ( 'classification_officer' ) ;
#153 = COORDINATED_UNIVERSAL_TIME_OFFSET ( 1, 0, .AHEAD. ) ;
#154 = PERSON_AND_ORGANIZATION ( #158, #8 ) ;
#155 = AXIS2_PLACEMENT_3D ( 'NONE', #43, #76, #193 ) ;
#156 = DIRECTION ( 'NONE',  ( -3.491481338843133355E-15, 1.224646799147353207E-16, -1.000000000000000000 ) ) ;
#157 = EDGE_LOOP ( 'NONE', ( #29 ) ) ;
#158 = PERSON ( 'UNSPECIFIED', 'UNSPECIFIED', 'UNSPECIFIED', ('UNSPECIFIED'), ('UNSPECIFIED'), ('UNSPECIFIED') ) ;
#159 = DIRECTION ( 'NONE',  ( -3.491481338843133355E-15, 1.224646799147353207E-16, -1.000000000000000000 ) ) ;
#160 = APPROVAL_PERSON_ORGANIZATION ( #82, #62, #149 ) ;
#161 = CARTESIAN_POINT ( 'NONE',  ( 1.390951090143238890E-14, 1.124819836996392658E-32, 3.983842258209279841 ) ) ;
#162 = ORIENTED_EDGE ( 'NONE', *, *, #92, .T. ) ;
#163 = PERSON_AND_ORGANIZATION_ROLE ( 'creator' ) ;
#164 = CLOSED_SHELL ( 'NONE', ( #71, #88, #68, #58 ) ) ;
#165 = CIRCLE ( 'NONE', #77, 0.05000000000000007910 ) ;
#166 = DATE_AND_TIME ( #198, #46 ) ;
#167 = EDGE_CURVE ( 'NONE', #168, #168, #132, .T. ) ;
#168 = VERTEX_POINT ( 'NONE', #170 ) ;
#169 = AXIS2_PLACEMENT_3D ( 'NONE', #2, #156, #1 ) ;
#170 = CARTESIAN_POINT ( 'NONE',  ( 1.390951090143238575E-14, 1.499999999999999556, 3.983842258209278953 ) ) ;
#171 = CC_DESIGN_DATE_AND_TIME_ASSIGNMENT ( #166, #48, ( #31 ) ) ;
#172 = CALENDAR_DATE ( 2021, 22, 11 ) ;
#173 = CALENDAR_DATE ( 2021, 22, 11 ) ;
#174 = AXIS2_PLACEMENT_3D ( 'NONE', #124, #159, #17 ) ;
#175 = FACE_BOUND ( 'NONE', #177, .T. ) ;
#176 = AXIS2_PLACEMENT_3D ( 'NONE', #200, #186, #35 ) ;
#177 = EDGE_LOOP ( 'NONE', ( #143 ) ) ;
#178 = FACE_BOUND ( 'NONE', #79, .T. ) ;
#179 = ORIENTED_EDGE ( 'NONE', *, *, #167, .F. ) ;
#180 = CC_DESIGN_PERSON_AND_ORGANIZATION_ASSIGNMENT ( #197, #163, ( #31 ) ) ;
#181 = EDGE_LOOP ( 'NONE', ( #179 ) ) ;
#182 = APPROVAL_DATE_TIME ( #133, #62 ) ;
#183 = APPLICATION_CONTEXT ( 'configuration controlled 3d designs of mechanical parts and assemblies' ) ;
#184 =( NAMED_UNIT ( * ) SI_UNIT ( $, .STERADIAN. ) SOLID_ANGLE_UNIT ( ) );
#185 = CC_DESIGN_APPROVAL ( #62, ( #31 ) ) ;
#186 = DIRECTION ( 'NONE',  ( 3.491481338843133355E-15, -1.224646799147353207E-16, 1.000000000000000000 ) ) ;
#187 = COORDINATED_UNIVERSAL_TIME_OFFSET ( 1, 0, .AHEAD. ) ;
#188 = APPROVAL_DATE_TIME ( #74, #141 ) ;
#189 = PRODUCT ( '326689', '326689', '', ( #65 ) ) ;
#190 = COORDINATED_UNIVERSAL_TIME_OFFSET ( 1, 0, .AHEAD. ) ;
#191 = PERSON_AND_ORGANIZATION ( #158, #8 ) ;
#192 = LOCAL_TIME ( 11, 26, 18.00000000000000000, #153 ) ;
#193 = DIRECTION ( 'NONE',  ( 0.0000000000000000000, 1.000000000000000000, 0.0000000000000000000 ) ) ;
#194 = FACE_OUTER_BOUND ( 'NONE', #3, .T. ) ;
#195 = EDGE_LOOP ( 'NONE', ( #96 ) ) ;
#196 = AXIS2_PLACEMENT_3D ( 'NONE', #5, #63, #129 ) ;
#197 = PERSON_AND_ORGANIZATION ( #158, #8 ) ;
#198 = CALENDAR_DATE ( 2021, 22, 11 ) ;
#199 = CARTESIAN_POINT ( 'NONE',  ( 1.390951090143238575E-14, -4.878799669823956792E-16, 3.983842258209278953 ) ) ;
#200 = CARTESIAN_POINT ( 'NONE',  ( -4.774779157295033288E-33, 1.674767081399994395E-34, -1.367551103359786924E-18 ) ) ;
#201 = LOCAL_TIME ( 11, 26, 18.00000000000000000, #190 ) ;
#202 = CALENDAR_DATE ( 2021, 22, 11 ) ;
#203 = SECURITY_CLASSIFICATION_LEVEL ( 'unclassified' ) ;
ENDSEC;
END-ISO-10303-21;
