ISO-10303-21;
HEADER;
FILE_DESCRIPTION (( 'STEP AP203' ),
    '1' );
FILE_NAME ('326688.step',
    '2021-11-22T10:26:18',
    ( '' ),
    ( '' ),
    'SwSTEP 2.0',
    'SolidWorks 2019',
    '' );
FILE_SCHEMA (( 'CONFIG_CONTROL_DESIGN' ));
ENDSEC;

DATA;
#1 = CARTESIAN_POINT ( 'NONE',  ( 1.400543856282157492E-14, -4.912446564098605137E-16, 4.011317032403825422 ) ) ;
#2 = DIRECTION ( 'NONE',  ( 4.275831445896959482E-31, 1.000000000000000000, 1.224646799147353207E-16 ) ) ;
#3 = AXIS2_PLACEMENT_3D ( 'NONE', #99, #125, #86 ) ;
#4 = AXIS2_PLACEMENT_3D ( 'NONE', #195, #89, #198 ) ;
#5 = DIRECTION ( 'NONE',  ( 3.491481338843133355E-15, -1.224646799147353207E-16, 1.000000000000000000 ) ) ;
#6 = MANIFOLD_SOLID_BREP ( 'Corps-Déplacer/Copier1[2]', #51 ) ;
#7 = DIRECTION ( 'NONE',  ( 0.0000000000000000000, 1.000000000000000000, 0.0000000000000000000 ) ) ;
#8 = CARTESIAN_POINT ( 'NONE',  ( 1.400543856282157492E-14, -4.912446564098605137E-16, 4.011317032403825422 ) ) ;
#9 = CIRCLE ( 'NONE', #92, 0.04000000000000024369 ) ;
#10 = APPROVAL_DATE_TIME ( #150, #149 ) ;
#11 = ADVANCED_FACE ( 'NONE', ( #176 ), #189, .F. ) ;
#12 = MANIFOLD_SOLID_BREP ( 'Corps-Déplacer/Copier1[1]', #183 ) ;
#13 = CARTESIAN_POINT ( 'NONE',  ( 1.326762908760390423E-13, 1.199999999999995515, 38.00000000000000000 ) ) ;
#14 = DATE_AND_TIME ( #33, #172 ) ;
#15 = CC_DESIGN_APPROVAL ( #42, ( #157 ) ) ;
#16 = VERTEX_POINT ( 'NONE', #32 ) ;
#17 = APPROVAL_STATUS ( 'not_yet_approved' ) ;
#18 = AXIS2_PLACEMENT_3D ( 'NONE', #8, #73, #160 ) ;
#19 = CC_DESIGN_APPROVAL ( #145, ( #37 ) ) ;
#20 = APPROVAL_DATE_TIME ( #22, #42 ) ;
#21 = ADVANCED_FACE ( 'NONE', ( #129, #26 ), #27, .T. ) ;
#22 = DATE_AND_TIME ( #202, #197 ) ;
#23 = EDGE_LOOP ( 'NONE', ( #163 ) ) ;
#24 = PERSON_AND_ORGANIZATION ( #53, #96 ) ;
#25 = EDGE_LOOP ( 'NONE', ( #143 ) ) ;
#26 = FACE_OUTER_BOUND ( 'NONE', #178, .T. ) ;
#27 = CYLINDRICAL_SURFACE ( 'NONE', #158, 1.500000000000000000 ) ;
#28 = ORIENTED_EDGE ( 'NONE', *, *, #54, .F. ) ;
#29 = ORIENTED_EDGE ( 'NONE', *, *, #181, .T. ) ;
#30 = PERSON_AND_ORGANIZATION_ROLE ( 'creator' ) ;
#31 = CIRCLE ( 'NONE', #80, 1.200000000000000178 ) ;
#32 = CARTESIAN_POINT ( 'NONE',  ( 1.316288464743861212E-13, 1.499999999999995559, 37.69999999999999574 ) ) ;
#33 = CALENDAR_DATE ( 2021, 22, 11 ) ;
#34 = PERSON_AND_ORGANIZATION ( #53, #96 ) ;
#35 = SHAPE_DEFINITION_REPRESENTATION ( #90, #131 ) ;
#36 = ADVANCED_FACE ( 'NONE', ( #56 ), #101, .F. ) ;
#37 = PRODUCT_DEFINITION ( 'UNKNOWN', '', #64, #75 ) ;
#38 = CONICAL_SURFACE ( 'NONE', #81, 1.500000000000000000, 0.7853981633974453924 ) ;
#39 = CARTESIAN_POINT ( 'NONE',  ( 1.400543856282157807E-14, 1.124819836996392658E-32, 4.011317032403826310 ) ) ;
#40 = DIRECTION ( 'NONE',  ( 4.275831445896958607E-31, 1.000000000000000000, 1.224646799147353207E-16 ) ) ;
#41 = ORIENTED_EDGE ( 'NONE', *, *, #54, .T. ) ;
#42 = APPROVAL ( #170, 'UNSPECIFIED' ) ;
#43 = DIRECTION ( 'NONE',  ( -4.275831445896958607E-31, -1.000000000000000000, -1.224646799147353207E-16 ) ) ;
#44 = DIRECTION ( 'NONE',  ( 0.0000000000000000000, -1.000000000000000000, 0.0000000000000000000 ) ) ;
#45 = CALENDAR_DATE ( 2021, 22, 11 ) ;
#46 = UNCERTAINTY_MEASURE_WITH_UNIT (LENGTH_MEASURE( 1.000000000000000082E-05 ), #137, 'distance_accuracy_value', 'NONE');
#47 = CIRCLE ( 'NONE', #3, 1.500000000000000000 ) ;
#48 =( NAMED_UNIT ( * ) PLANE_ANGLE_UNIT ( ) SI_UNIT ( $, .RADIAN. ) );
#49 = CC_DESIGN_PERSON_AND_ORGANIZATION_ASSIGNMENT ( #61, #105, ( #184 ) ) ;
#50 = CARTESIAN_POINT ( 'NONE',  ( 1.400543856282157492E-14, 1.499999999999999556, 4.011317032403825422 ) ) ;
#51 = CLOSED_SHELL ( 'NONE', ( #11, #72, #173 ) ) ;
#52 = LOCAL_TIME ( 11, 26, 18.00000000000000000, #91 ) ;
#53 = PERSON ( 'UNSPECIFIED', 'UNSPECIFIED', 'UNSPECIFIED', ('UNSPECIFIED'), ('UNSPECIFIED'), ('UNSPECIFIED') ) ;
#54 = EDGE_CURVE ( 'NONE', #182, #182, #177, .T. ) ;
#55 = FACE_OUTER_BOUND ( 'NONE', #25, .T. ) ;
#56 = FACE_OUTER_BOUND ( 'NONE', #57, .T. ) ;
#57 = EDGE_LOOP ( 'NONE', ( #88 ) ) ;
#58 = LOCAL_TIME ( 11, 26, 18.00000000000000000, #59 ) ;
#59 = COORDINATED_UNIVERSAL_TIME_OFFSET ( 1, 0, .AHEAD. ) ;
#60 = CC_DESIGN_SECURITY_CLASSIFICATION ( #157, ( #64 ) ) ;
#61 = PERSON_AND_ORGANIZATION ( #53, #96 ) ;
#62 = EDGE_CURVE ( 'NONE', #168, #168, #9, .T. ) ;
#63 = DATE_TIME_ROLE ( 'creation_date' ) ;
#64 = PRODUCT_DEFINITION_FORMATION_WITH_SPECIFIED_SOURCE ( 'ANY', '', #184, .NOT_KNOWN. ) ;
#65 = CC_DESIGN_DATE_AND_TIME_ASSIGNMENT ( #154, #63, ( #37 ) ) ;
#66 = EDGE_LOOP ( 'NONE', ( #174 ) ) ;
#67 = SECURITY_CLASSIFICATION_LEVEL ( 'unclassified' ) ;
#68 = DIRECTION ( 'NONE',  ( -4.275831445896958607E-31, -1.000000000000000000, -1.224646799147353207E-16 ) ) ;
#69 = ORIENTED_EDGE ( 'NONE', *, *, #77, .T. ) ;
#70 = DIRECTION ( 'NONE',  ( 3.491481338843133355E-15, -1.224646799147353207E-16, 1.000000000000000000 ) ) ;
#71 = DIRECTION ( 'NONE',  ( -3.491481338843133355E-15, 1.224646799147353207E-16, -1.000000000000000000 ) ) ;
#72 = ADVANCED_FACE ( 'NONE', ( #100, #55 ), #142, .T. ) ;
#73 = DIRECTION ( 'NONE',  ( -3.491481338843133355E-15, 1.224646799147353207E-16, -1.000000000000000000 ) ) ;
#74 =( GEOMETRIC_REPRESENTATION_CONTEXT ( 3 ) GLOBAL_UNCERTAINTY_ASSIGNED_CONTEXT ( ( #46 ) ) GLOBAL_UNIT_ASSIGNED_CONTEXT ( ( #137, #48, #152 ) ) REPRESENTATION_CONTEXT ( 'NONE', 'WORKASPACE' ) );
#75 = DESIGN_CONTEXT ( 'detailed design', #196, 'design' ) ;
#76 = PERSON_AND_ORGANIZATION ( #53, #96 ) ;
#77 = EDGE_CURVE ( 'NONE', #117, #117, #31, .T. ) ;
#78 = MECHANICAL_CONTEXT ( 'NONE', #128, 'mechanical' ) ;
#79 = APPROVAL_ROLE ( '' ) ;
#80 = AXIS2_PLACEMENT_3D ( 'NONE', #147, #192, #7 ) ;
#81 = AXIS2_PLACEMENT_3D ( 'NONE', #166, #134, #151 ) ;
#82 = ORIENTED_EDGE ( 'NONE', *, *, #62, .T. ) ;
#83 = PERSON_AND_ORGANIZATION ( #53, #96 ) ;
#84 = DIRECTION ( 'NONE',  ( -3.491481338843133355E-15, 1.224646799147353207E-16, -1.000000000000000000 ) ) ;
#85 = DIRECTION ( 'NONE',  ( -3.491481338843133355E-15, 1.224646799147353207E-16, -1.000000000000000000 ) ) ;
#86 = DIRECTION ( 'NONE',  ( 0.0000000000000000000, 1.000000000000000000, 0.0000000000000000000 ) ) ;
#87 = CARTESIAN_POINT ( 'NONE',  ( -2.301812524103531687E-32, 8.073671505902121708E-34, -6.592653091098042719E-18 ) ) ;
#88 = ORIENTED_EDGE ( 'NONE', *, *, #77, .F. ) ;
#89 = DIRECTION ( 'NONE',  ( 0.0000000000000000000, 0.0000000000000000000, 1.000000000000000000 ) ) ;
#90 = PRODUCT_DEFINITION_SHAPE ( 'NONE', 'NONE',  #37 ) ;
#91 = COORDINATED_UNIVERSAL_TIME_OFFSET ( 1, 0, .AHEAD. ) ;
#92 = AXIS2_PLACEMENT_3D ( 'NONE', #87, #85, #171 ) ;
#93 = LOCAL_TIME ( 11, 26, 18.00000000000000000, #97 ) ;
#94 = APPLICATION_PROTOCOL_DEFINITION ( 'international standard', 'config_control_design', 1994, #128 ) ;
#95 = PERSON_AND_ORGANIZATION_ROLE ( 'creator' ) ;
#96 = ORGANIZATION ( 'UNSPECIFIED', 'UNSPECIFIED', '' ) ;
#97 = COORDINATED_UNIVERSAL_TIME_OFFSET ( 1, 0, .AHEAD. ) ;
#98 = AXIS2_PLACEMENT_3D ( 'NONE', #187, #130, #40 ) ;
#99 = CARTESIAN_POINT ( 'NONE',  ( 1.316288464743861212E-13, -4.616918432785521081E-15, 37.69999999999999574 ) ) ;
#100 = FACE_BOUND ( 'NONE', #66, .T. ) ;
#101 = PLANE ( 'NONE',  #98 ) ;
#102 = CC_DESIGN_APPROVAL ( #149, ( #64 ) ) ;
#103 = DIRECTION ( 'NONE',  ( 0.0000000000000000000, 1.000000000000000000, 0.0000000000000000000 ) ) ;
#104 = PLANE ( 'NONE',  #107 ) ;
#105 = PERSON_AND_ORGANIZATION_ROLE ( 'design_owner' ) ;
#106 = APPROVAL_STATUS ( 'not_yet_approved' ) ;
#107 = AXIS2_PLACEMENT_3D ( 'NONE', #165, #5, #68 ) ;
#108 = COORDINATED_UNIVERSAL_TIME_OFFSET ( 1, 0, .AHEAD. ) ;
#109 = CC_DESIGN_DATE_AND_TIME_ASSIGNMENT ( #156, #110, ( #157 ) ) ;
#110 = DATE_TIME_ROLE ( 'classification_date' ) ;
#111 = EDGE_LOOP ( 'NONE', ( #41 ) ) ;
#112 = EDGE_LOOP ( 'NONE', ( #69 ) ) ;
#113 = DIRECTION ( 'NONE',  ( 3.491481338843133355E-15, -1.224646799147353207E-16, 1.000000000000000000 ) ) ;
#114 = EDGE_LOOP ( 'NONE', ( #203 ) ) ;
#115 = CARTESIAN_POINT ( 'NONE',  ( 1.400543856282157492E-14, -4.912446564098605137E-16, 4.011317032403825422 ) ) ;
#116 = PRODUCT_RELATED_PRODUCT_CATEGORY ( 'detail', '', ( #184 ) ) ;
#117 = VERTEX_POINT ( 'NONE', #13 ) ;
#118 = APPROVAL_ROLE ( '' ) ;
#119 = APPROVAL_PERSON_ORGANIZATION ( #121, #149, #79 ) ;
#120 = PERSON_AND_ORGANIZATION ( #53, #96 ) ;
#121 = PERSON_AND_ORGANIZATION ( #53, #96 ) ;
#122 = AXIS2_PLACEMENT_3D ( 'NONE', #148, #127, #43 ) ;
#123 = PERSON_AND_ORGANIZATION_ROLE ( 'classification_officer' ) ;
#124 = EDGE_LOOP ( 'NONE', ( #29 ) ) ;
#125 = DIRECTION ( 'NONE',  ( -3.491481338843133355E-15, 1.224646799147353207E-16, -1.000000000000000000 ) ) ;
#126 = AXIS2_PLACEMENT_3D ( 'NONE', #39, #70, #175 ) ;
#127 = DIRECTION ( 'NONE',  ( 3.491481338843133355E-15, -1.224646799147353207E-16, 1.000000000000000000 ) ) ;
#128 = APPLICATION_CONTEXT ( 'configuration controlled 3d designs of mechanical parts and assemblies' ) ;
#129 = FACE_OUTER_BOUND ( 'NONE', #124, .T. ) ;
#130 = DIRECTION ( 'NONE',  ( -3.491481338843133355E-15, 1.224646799147353207E-16, -1.000000000000000000 ) ) ;
#131 = ADVANCED_BREP_SHAPE_REPRESENTATION ( '326688', ( #12, #6, #4 ), #74 ) ;
#132 = FACE_OUTER_BOUND ( 'NONE', #23, .T. ) ;
#133 = CC_DESIGN_PERSON_AND_ORGANIZATION_ASSIGNMENT ( #138, #185, ( #64 ) ) ;
#134 = DIRECTION ( 'NONE',  ( -3.491481338843133355E-15, 1.224646799147353207E-16, -1.000000000000000000 ) ) ;
#135 = CARTESIAN_POINT ( 'NONE',  ( 1.400543856282157492E-14, 1.499999999999999556, 4.011317032403825422 ) ) ;
#136 = CALENDAR_DATE ( 2021, 22, 11 ) ;
#137 =( LENGTH_UNIT ( ) NAMED_UNIT ( * ) SI_UNIT ( .MILLI., .METRE. ) );
#138 = PERSON_AND_ORGANIZATION ( #53, #96 ) ;
#139 = AXIS2_PLACEMENT_3D ( 'NONE', #1, #113, #44 ) ;
#140 = APPROVAL_ROLE ( '' ) ;
#141 = APPROVAL_PERSON_ORGANIZATION ( #120, #145, #118 ) ;
#142 = CONICAL_SURFACE ( 'NONE', #139, 1.500000000000000000, 0.3490658503988596784 ) ;
#143 = ORIENTED_EDGE ( 'NONE', *, *, #164, .T. ) ;
#144 = FACE_BOUND ( 'NONE', #112, .T. ) ;
#145 = APPROVAL ( #106, 'UNSPECIFIED' ) ;
#146 = FACE_OUTER_BOUND ( 'NONE', #114, .T. ) ;
#147 = CARTESIAN_POINT ( 'NONE',  ( 1.326762908760390423E-13, -4.653657836759941941E-15, 38.00000000000000000 ) ) ;
#148 = CARTESIAN_POINT ( 'NONE',  ( -1.150906262051765844E-32, 4.036835752951060854E-34, -3.296326545549021360E-18 ) ) ;
#149 = APPROVAL ( #17, 'UNSPECIFIED' ) ;
#150 = DATE_AND_TIME ( #45, #58 ) ;
#151 = DIRECTION ( 'NONE',  ( 0.0000000000000000000, 1.000000000000000000, 0.0000000000000000000 ) ) ;
#152 =( NAMED_UNIT ( * ) SI_UNIT ( $, .STERADIAN. ) SOLID_ANGLE_UNIT ( ) );
#153 = VERTEX_POINT ( 'NONE', #50 ) ;
#154 = DATE_AND_TIME ( #136, #52 ) ;
#155 = ADVANCED_FACE ( 'NONE', ( #161 ), #104, .F. ) ;
#156 = DATE_AND_TIME ( #169, #93 ) ;
#157 = SECURITY_CLASSIFICATION ( '', '', #67 ) ;
#158 = AXIS2_PLACEMENT_3D ( 'NONE', #190, #71, #2 ) ;
#159 = EDGE_LOOP ( 'NONE', ( #82 ) ) ;
#160 = DIRECTION ( 'NONE',  ( 0.0000000000000000000, 1.000000000000000000, 0.0000000000000000000 ) ) ;
#161 = FACE_OUTER_BOUND ( 'NONE', #111, .T. ) ;
#162 = APPROVAL_PERSON_ORGANIZATION ( #24, #42, #140 ) ;
#163 = ORIENTED_EDGE ( 'NONE', *, *, #164, .F. ) ;
#164 = EDGE_CURVE ( 'NONE', #153, #153, #188, .T. ) ;
#165 = CARTESIAN_POINT ( 'NONE',  ( 1.400543856282157807E-14, 1.124819836996392658E-32, 4.011317032403826310 ) ) ;
#166 = CARTESIAN_POINT ( 'NONE',  ( 1.316288464743861212E-13, -4.616918432785521081E-15, 37.69999999999999574 ) ) ;
#167 = APPROVAL_DATE_TIME ( #14, #145 ) ;
#168 = VERTEX_POINT ( 'NONE', #199 ) ;
#169 = CALENDAR_DATE ( 2021, 22, 11 ) ;
#170 = APPROVAL_STATUS ( 'not_yet_approved' ) ;
#171 = DIRECTION ( 'NONE',  ( 4.275831445896957731E-31, 1.000000000000000000, 1.224646799147352961E-16 ) ) ;
#172 = LOCAL_TIME ( 11, 26, 18.00000000000000000, #180 ) ;
#173 = ADVANCED_FACE ( 'NONE', ( #132 ), #193, .T. ) ;
#174 = ORIENTED_EDGE ( 'NONE', *, *, #62, .F. ) ;
#175 = DIRECTION ( 'NONE',  ( -4.275831445896958607E-31, -1.000000000000000000, -1.224646799147353207E-16 ) ) ;
#176 = FACE_OUTER_BOUND ( 'NONE', #159, .T. ) ;
#177 = CIRCLE ( 'NONE', #200, 1.500000000000000000 ) ;
#178 = EDGE_LOOP ( 'NONE', ( #28 ) ) ;
#179 = APPLICATION_PROTOCOL_DEFINITION ( 'international standard', 'config_control_design', 1994, #196 ) ;
#180 = COORDINATED_UNIVERSAL_TIME_OFFSET ( 1, 0, .AHEAD. ) ;
#181 = EDGE_CURVE ( 'NONE', #16, #16, #47, .T. ) ;
#182 = VERTEX_POINT ( 'NONE', #135 ) ;
#183 = CLOSED_SHELL ( 'NONE', ( #155, #21, #186, #36 ) ) ;
#184 = PRODUCT ( '326688', '326688', '', ( #78 ) ) ;
#185 = PERSON_AND_ORGANIZATION_ROLE ( 'design_supplier' ) ;
#186 = ADVANCED_FACE ( 'NONE', ( #144, #146 ), #38, .T. ) ;
#187 = CARTESIAN_POINT ( 'NONE',  ( 1.326762908760390423E-13, 8.998558695971078593E-33, 38.00000000000000000 ) ) ;
#188 = CIRCLE ( 'NONE', #18, 1.500000000000000000 ) ;
#189 = PLANE ( 'NONE',  #122 ) ;
#190 = CARTESIAN_POINT ( 'NONE',  ( 0.0000000000000000000, 0.0000000000000000000, 0.0000000000000000000 ) ) ;
#191 = CC_DESIGN_PERSON_AND_ORGANIZATION_ASSIGNMENT ( #83, #123, ( #157 ) ) ;
#192 = DIRECTION ( 'NONE',  ( -3.491481338843133355E-15, 1.224646799147353207E-16, -1.000000000000000000 ) ) ;
#193 = PLANE ( 'NONE',  #126 ) ;
#194 = CC_DESIGN_PERSON_AND_ORGANIZATION_ASSIGNMENT ( #76, #95, ( #64 ) ) ;
#195 = CARTESIAN_POINT ( 'NONE',  ( 0.0000000000000000000, 0.0000000000000000000, 0.0000000000000000000 ) ) ;
#196 = APPLICATION_CONTEXT ( 'configuration controlled 3d designs of mechanical parts and assemblies' ) ;
#197 = LOCAL_TIME ( 11, 26, 18.00000000000000000, #108 ) ;
#198 = DIRECTION ( 'NONE',  ( 1.000000000000000000, 0.0000000000000000000, 0.0000000000000000000 ) ) ;
#199 = CARTESIAN_POINT ( 'NONE',  ( -5.914799457447379239E-33, 0.04000000000000024369, -1.694065894508600678E-18 ) ) ;
#200 = AXIS2_PLACEMENT_3D ( 'NONE', #115, #84, #103 ) ;
#201 = CC_DESIGN_PERSON_AND_ORGANIZATION_ASSIGNMENT ( #34, #30, ( #37 ) ) ;
#202 = CALENDAR_DATE ( 2021, 22, 11 ) ;
#203 = ORIENTED_EDGE ( 'NONE', *, *, #181, .F. ) ;
ENDSEC;
END-ISO-10303-21;
