ISO-10303-21;
HEADER;
FILE_DESCRIPTION (( 'STEP AP203' ),
    '1' );
FILE_NAME ('326687.step',
    '2021-11-22T10:26:17',
    ( '' ),
    ( '' ),
    'SwSTEP 2.0',
    'SolidWorks 2019',
    '' );
FILE_SCHEMA (( 'CONFIG_CONTROL_DESIGN' ));
ENDSEC;

DATA;
#1 = MECHANICAL_CONTEXT ( 'NONE', #99, 'mechanical' ) ;
#2 = APPROVAL_ROLE ( '' ) ;
#3 = APPLICATION_PROTOCOL_DEFINITION ( 'international standard', 'config_control_design', 1994, #109 ) ;
#4 = CIRCLE ( 'NONE', #69, 1.499999999999999778 ) ;
#5 = PERSON_AND_ORGANIZATION_ROLE ( 'design_supplier' ) ;
#6 = APPROVAL_DATE_TIME ( #172, #144 ) ;
#7 = APPROVAL_ROLE ( '' ) ;
#8 = CONICAL_SURFACE ( 'NONE', #160, 1.500000000000000000, 0.7853981633974453924 ) ;
#9 = DIRECTION ( 'NONE',  ( -4.275831445896958607E-31, -1.000000000000000000, -1.224646799147353207E-16 ) ) ;
#10 = CLOSED_SHELL ( 'NONE', ( #42, #64, #71, #77 ) ) ;
#11 = EDGE_LOOP ( 'NONE', ( #35 ) ) ;
#12 = CARTESIAN_POINT ( 'NONE',  ( 1.405340239351616793E-14, 1.499999999999999334, 4.025054419501098657 ) ) ;
#13 = AXIS2_PLACEMENT_3D ( 'NONE', #28, #93, #19 ) ;
#14 = CLOSED_SHELL ( 'NONE', ( #187, #195, #16 ) ) ;
#15 = DIRECTION ( 'NONE',  ( -4.275831445896958607E-31, -1.000000000000000000, -1.224646799147353207E-16 ) ) ;
#16 = ADVANCED_FACE ( 'NONE', ( #179 ), #180, .T. ) ;
#17 = APPLICATION_PROTOCOL_DEFINITION ( 'international standard', 'config_control_design', 1994, #99 ) ;
#18 = APPROVAL_PERSON_ORGANIZATION ( #30, #144, #110 ) ;
#19 = DIRECTION ( 'NONE',  ( 1.000000000000000000, 0.0000000000000000000, 0.0000000000000000000 ) ) ;
#20 = DATE_TIME_ROLE ( 'creation_date' ) ;
#21 = COORDINATED_UNIVERSAL_TIME_OFFSET ( 1, 0, .AHEAD. ) ;
#22 = PERSON_AND_ORGANIZATION ( #50, #104 ) ;
#23 = DIRECTION ( 'NONE',  ( 3.491481338843133355E-15, -1.224646799147353207E-16, 1.000000000000000000 ) ) ;
#24 = DIRECTION ( 'NONE',  ( -3.491481338843133355E-15, 1.224646799147353207E-16, -1.000000000000000000 ) ) ;
#25 =( NAMED_UNIT ( * ) SI_UNIT ( $, .STERADIAN. ) SOLID_ANGLE_UNIT ( ) );
#26 = CC_DESIGN_APPROVAL ( #38, ( #164 ) ) ;
#27 = CARTESIAN_POINT ( 'NONE',  ( 1.405340239351616793E-14, -4.929270011235927830E-16, 4.025054419501098657 ) ) ;
#28 = CARTESIAN_POINT ( 'NONE',  ( 0.0000000000000000000, 0.0000000000000000000, 0.0000000000000000000 ) ) ;
#29 = APPROVAL_PERSON_ORGANIZATION ( #161, #38, #7 ) ;
#30 = PERSON_AND_ORGANIZATION ( #50, #104 ) ;
#31 = UNCERTAINTY_MEASURE_WITH_UNIT (LENGTH_MEASURE( 1.000000000000000082E-05 ), #105, 'distance_accuracy_value', 'NONE');
#32 = PERSON_AND_ORGANIZATION_ROLE ( 'creator' ) ;
#33 = DATE_AND_TIME ( #111, #79 ) ;
#34 = SHAPE_DEFINITION_REPRESENTATION ( #188, #44 ) ;
#35 = ORIENTED_EDGE ( 'NONE', *, *, #68, .T. ) ;
#36 = AXIS2_PLACEMENT_3D ( 'NONE', #169, #88, #15 ) ;
#37 = AXIS2_PLACEMENT_3D ( 'NONE', #167, #23, #9 ) ;
#38 = APPROVAL ( #194, 'UNSPECIFIED' ) ;
#39 = DIRECTION ( 'NONE',  ( -4.275831445896958607E-31, -1.000000000000000000, -1.224646799147353207E-16 ) ) ;
#40 = VERTEX_POINT ( 'NONE', #201 ) ;
#41 = CARTESIAN_POINT ( 'NONE',  ( 1.326762908760390423E-13, 8.998558695971078593E-33, 38.00000000000000000 ) ) ;
#42 = ADVANCED_FACE ( 'NONE', ( #103 ), #115, .F. ) ;
#43 = VERTEX_POINT ( 'NONE', #92 ) ;
#44 = ADVANCED_BREP_SHAPE_REPRESENTATION ( '326687', ( #152, #61, #13 ), #119 ) ;
#45 = DIRECTION ( 'NONE',  ( -3.491481338843133355E-15, 1.224646799147353207E-16, -1.000000000000000000 ) ) ;
#46 = EDGE_CURVE ( 'NONE', #43, #43, #66, .T. ) ;
#47 = COORDINATED_UNIVERSAL_TIME_OFFSET ( 1, 0, .AHEAD. ) ;
#48 = AXIS2_PLACEMENT_3D ( 'NONE', #54, #151, #72 ) ;
#49 = PERSON_AND_ORGANIZATION ( #50, #104 ) ;
#50 = PERSON ( 'UNSPECIFIED', 'UNSPECIFIED', 'UNSPECIFIED', ('UNSPECIFIED'), ('UNSPECIFIED'), ('UNSPECIFIED') ) ;
#51 = EDGE_CURVE ( 'NONE', #157, #157, #75, .T. ) ;
#52 = PRODUCT_DEFINITION_FORMATION_WITH_SPECIFIED_SOURCE ( 'ANY', '', #147, .NOT_KNOWN. ) ;
#53 = ORIENTED_EDGE ( 'NONE', *, *, #51, .F. ) ;
#54 = CARTESIAN_POINT ( 'NONE',  ( 1.316288464743861212E-13, -4.616918432785521081E-15, 37.69999999999999574 ) ) ;
#55 = EDGE_LOOP ( 'NONE', ( #132 ) ) ;
#56 = EDGE_LOOP ( 'NONE', ( #85 ) ) ;
#57 = EDGE_LOOP ( 'NONE', ( #182 ) ) ;
#58 = FACE_OUTER_BOUND ( 'NONE', #70, .T. ) ;
#59 = DIRECTION ( 'NONE',  ( 0.0000000000000000000, 1.000000000000000000, 0.0000000000000000000 ) ) ;
#60 = CARTESIAN_POINT ( 'NONE',  ( 1.405340239351616793E-14, 1.499999999999999334, 4.025054419501098657 ) ) ;
#61 = MANIFOLD_SOLID_BREP ( 'Corps-Déplacer/Copier1[2]', #14 ) ;
#62 = DIRECTION ( 'NONE',  ( 4.275831445896959482E-31, 1.000000000000000000, 1.224646799147353207E-16 ) ) ;
#63 = APPROVAL_STATUS ( 'not_yet_approved' ) ;
#64 = ADVANCED_FACE ( 'NONE', ( #197, #116 ), #178, .T. ) ;
#65 = SECURITY_CLASSIFICATION ( '', '', #191 ) ;
#66 = CIRCLE ( 'NONE', #193, 0.03500000000000021150 ) ;
#67 = APPROVAL_DATE_TIME ( #96, #38 ) ;
#68 = EDGE_CURVE ( 'NONE', #40, #40, #127, .T. ) ;
#69 = AXIS2_PLACEMENT_3D ( 'NONE', #27, #107, #139 ) ;
#70 = EDGE_LOOP ( 'NONE', ( #53 ) ) ;
#71 = ADVANCED_FACE ( 'NONE', ( #125, #58 ), #8, .T. ) ;
#72 = DIRECTION ( 'NONE',  ( 0.0000000000000000000, 1.000000000000000000, 0.0000000000000000000 ) ) ;
#73 = APPROVAL ( #142, 'UNSPECIFIED' ) ;
#74 = DIRECTION ( 'NONE',  ( -3.491481338843133355E-15, 1.224646799147353207E-16, -1.000000000000000000 ) ) ;
#75 = CIRCLE ( 'NONE', #48, 1.500000000000000000 ) ;
#76 = CARTESIAN_POINT ( 'NONE',  ( 1.326762908760390423E-13, -4.653657836759941941E-15, 38.00000000000000000 ) ) ;
#77 = ADVANCED_FACE ( 'NONE', ( #203 ), #168, .F. ) ;
#78 = DIRECTION ( 'NONE',  ( 4.275831445896958607E-31, 1.000000000000000000, 1.224646799147353207E-16 ) ) ;
#79 = LOCAL_TIME ( 11, 26, 17.00000000000000000, #47 ) ;
#80 = PLANE ( 'NONE',  #36 ) ;
#81 = PERSON_AND_ORGANIZATION ( #50, #104 ) ;
#82 = CC_DESIGN_DATE_AND_TIME_ASSIGNMENT ( #33, #174, ( #65 ) ) ;
#83 = CALENDAR_DATE ( 2021, 22, 11 ) ;
#84 = AXIS2_PLACEMENT_3D ( 'NONE', #91, #200, #183 ) ;
#85 = ORIENTED_EDGE ( 'NONE', *, *, #46, .F. ) ;
#86 = EDGE_LOOP ( 'NONE', ( #153 ) ) ;
#87 = CARTESIAN_POINT ( 'NONE',  ( 1.405340239351616793E-14, 1.174693759830023048E-31, 4.025054419501098657 ) ) ;
#88 = DIRECTION ( 'NONE',  ( 3.491481338843133355E-15, -1.224646799147353207E-16, 1.000000000000000000 ) ) ;
#89 = CARTESIAN_POINT ( 'NONE',  ( 0.0000000000000000000, 0.0000000000000000000, 0.0000000000000000000 ) ) ;
#90 = LOCAL_TIME ( 11, 26, 17.00000000000000000, #21 ) ;
#91 = CARTESIAN_POINT ( 'NONE',  ( 1.405340239351616793E-14, -4.929270011235927830E-16, 4.025054419501098657 ) ) ;
#92 = CARTESIAN_POINT ( 'NONE',  ( 0.0000000000000000000, 0.03500000000000021150, 0.0000000000000000000 ) ) ;
#93 = DIRECTION ( 'NONE',  ( 0.0000000000000000000, 0.0000000000000000000, 1.000000000000000000 ) ) ;
#94 = CC_DESIGN_PERSON_AND_ORGANIZATION_ASSIGNMENT ( #98, #192, ( #65 ) ) ;
#95 = AXIS2_PLACEMENT_3D ( 'NONE', #76, #74, #184 ) ;
#96 = DATE_AND_TIME ( #83, #90 ) ;
#97 = DATE_AND_TIME ( #112, #171 ) ;
#98 = PERSON_AND_ORGANIZATION ( #50, #104 ) ;
#99 = APPLICATION_CONTEXT ( 'configuration controlled 3d designs of mechanical parts and assemblies' ) ;
#100 = APPROVAL_PERSON_ORGANIZATION ( #81, #73, #2 ) ;
#101 = CC_DESIGN_DATE_AND_TIME_ASSIGNMENT ( #97, #20, ( #164 ) ) ;
#102 = EDGE_LOOP ( 'NONE', ( #149 ) ) ;
#103 = FACE_OUTER_BOUND ( 'NONE', #102, .T. ) ;
#104 = ORGANIZATION ( 'UNSPECIFIED', 'UNSPECIFIED', '' ) ;
#105 =( LENGTH_UNIT ( ) NAMED_UNIT ( * ) SI_UNIT ( .MILLI., .METRE. ) );
#106 = DESIGN_CONTEXT ( 'detailed design', #109, 'design' ) ;
#107 = DIRECTION ( 'NONE',  ( -3.491481338843133355E-15, 1.224646799147353207E-16, -1.000000000000000000 ) ) ;
#108 = VERTEX_POINT ( 'NONE', #60 ) ;
#109 = APPLICATION_CONTEXT ( 'configuration controlled 3d designs of mechanical parts and assemblies' ) ;
#110 = APPROVAL_ROLE ( '' ) ;
#111 = CALENDAR_DATE ( 2021, 22, 11 ) ;
#112 = CALENDAR_DATE ( 2021, 22, 11 ) ;
#113 = AXIS2_PLACEMENT_3D ( 'NONE', #87, #150, #39 ) ;
#114 = EDGE_CURVE ( 'NONE', #155, #155, #4, .T. ) ;
#115 = PLANE ( 'NONE',  #37 ) ;
#116 = FACE_OUTER_BOUND ( 'NONE', #55, .T. ) ;
#117 = EDGE_LOOP ( 'NONE', ( #120 ) ) ;
#118 = ORIENTED_EDGE ( 'NONE', *, *, #154, .T. ) ;
#119 =( GEOMETRIC_REPRESENTATION_CONTEXT ( 3 ) GLOBAL_UNCERTAINTY_ASSIGNED_CONTEXT ( ( #31 ) ) GLOBAL_UNIT_ASSIGNED_CONTEXT ( ( #105, #140, #25 ) ) REPRESENTATION_CONTEXT ( 'NONE', 'WORKASPACE' ) );
#120 = ORIENTED_EDGE ( 'NONE', *, *, #68, .F. ) ;
#121 = FACE_BOUND ( 'NONE', #56, .T. ) ;
#122 = CARTESIAN_POINT ( 'NONE',  ( 1.405340239351616793E-14, -4.929270011235927830E-16, 4.025054419501098657 ) ) ;
#123 = DIRECTION ( 'NONE',  ( -3.491481338843133355E-15, 1.224646799147353207E-16, -1.000000000000000000 ) ) ;
#124 = CC_DESIGN_PERSON_AND_ORGANIZATION_ASSIGNMENT ( #49, #5, ( #52 ) ) ;
#125 = FACE_BOUND ( 'NONE', #11, .T. ) ;
#126 = PERSON_AND_ORGANIZATION_ROLE ( 'creator' ) ;
#127 = CIRCLE ( 'NONE', #95, 1.200000000000000178 ) ;
#128 = COORDINATED_UNIVERSAL_TIME_OFFSET ( 1, 0, .AHEAD. ) ;
#129 = DATE_AND_TIME ( #141, #156 ) ;
#130 = AXIS2_PLACEMENT_3D ( 'NONE', #89, #45, #62 ) ;
#131 = APPROVAL_DATE_TIME ( #129, #73 ) ;
#132 = ORIENTED_EDGE ( 'NONE', *, *, #114, .F. ) ;
#133 = DIRECTION ( 'NONE',  ( -3.491481338843133355E-15, 1.224646799147353207E-16, -1.000000000000000000 ) ) ;
#134 = EDGE_LOOP ( 'NONE', ( #135 ) ) ;
#135 = ORIENTED_EDGE ( 'NONE', *, *, #51, .T. ) ;
#136 = CONICAL_SURFACE ( 'NONE', #84, 1.499999999999999778, 0.3490658503988596228 ) ;
#137 = CARTESIAN_POINT ( 'NONE',  ( 1.316288464743861212E-13, 1.499999999999995559, 37.69999999999999574 ) ) ;
#138 = FACE_OUTER_BOUND ( 'NONE', #86, .T. ) ;
#139 = DIRECTION ( 'NONE',  ( 0.0000000000000000000, 1.000000000000000000, 0.0000000000000000000 ) ) ;
#140 =( NAMED_UNIT ( * ) PLANE_ANGLE_UNIT ( ) SI_UNIT ( $, .RADIAN. ) );
#141 = CALENDAR_DATE ( 2021, 22, 11 ) ;
#142 = APPROVAL_STATUS ( 'not_yet_approved' ) ;
#143 = CC_DESIGN_APPROVAL ( #73, ( #52 ) ) ;
#144 = APPROVAL ( #63, 'UNSPECIFIED' ) ;
#145 = COORDINATED_UNIVERSAL_TIME_OFFSET ( 1, 0, .AHEAD. ) ;
#146 = PERSON_AND_ORGANIZATION ( #50, #104 ) ;
#147 = PRODUCT ( '326687', '326687', '', ( #1 ) ) ;
#148 = LOCAL_TIME ( 11, 26, 17.00000000000000000, #163 ) ;
#149 = ORIENTED_EDGE ( 'NONE', *, *, #114, .T. ) ;
#150 = DIRECTION ( 'NONE',  ( 3.491481338843133355E-15, -1.224646799147353207E-16, 1.000000000000000000 ) ) ;
#151 = DIRECTION ( 'NONE',  ( -3.491481338843133355E-15, 1.224646799147353207E-16, -1.000000000000000000 ) ) ;
#152 = MANIFOLD_SOLID_BREP ( 'Corps-Déplacer/Copier1[1]', #10 ) ;
#153 = ORIENTED_EDGE ( 'NONE', *, *, #46, .T. ) ;
#154 = EDGE_CURVE ( 'NONE', #108, #108, #181, .T. ) ;
#155 = VERTEX_POINT ( 'NONE', #12 ) ;
#156 = LOCAL_TIME ( 11, 26, 17.00000000000000000, #128 ) ;
#157 = VERTEX_POINT ( 'NONE', #137 ) ;
#158 = PRODUCT_RELATED_PRODUCT_CATEGORY ( 'detail', '', ( #147 ) ) ;
#159 = FACE_OUTER_BOUND ( 'NONE', #198, .T. ) ;
#160 = AXIS2_PLACEMENT_3D ( 'NONE', #186, #123, #170 ) ;
#161 = PERSON_AND_ORGANIZATION ( #50, #104 ) ;
#162 = PERSON_AND_ORGANIZATION ( #50, #104 ) ;
#163 = COORDINATED_UNIVERSAL_TIME_OFFSET ( 1, 0, .AHEAD. ) ;
#164 = PRODUCT_DEFINITION ( 'UNKNOWN', '', #52, #106 ) ;
#165 = CARTESIAN_POINT ( 'NONE',  ( -1.496541006063944500E-32, 5.249159239316533102E-34, -4.286263797015762171E-18 ) ) ;
#166 = AXIS2_PLACEMENT_3D ( 'NONE', #41, #24, #78 ) ;
#167 = CARTESIAN_POINT ( 'NONE',  ( 1.405340239351616793E-14, 1.174693759830023048E-31, 4.025054419501098657 ) ) ;
#168 = PLANE ( 'NONE',  #166 ) ;
#169 = CARTESIAN_POINT ( 'NONE',  ( -7.482705030319722502E-33, 2.624579619658266551E-34, -2.143131898507881086E-18 ) ) ;
#170 = DIRECTION ( 'NONE',  ( 0.0000000000000000000, 1.000000000000000000, 0.0000000000000000000 ) ) ;
#171 = LOCAL_TIME ( 11, 26, 17.00000000000000000, #145 ) ;
#172 = DATE_AND_TIME ( #173, #148 ) ;
#173 = CALENDAR_DATE ( 2021, 22, 11 ) ;
#174 = DATE_TIME_ROLE ( 'classification_date' ) ;
#175 = CC_DESIGN_PERSON_AND_ORGANIZATION_ASSIGNMENT ( #162, #189, ( #147 ) ) ;
#176 = CC_DESIGN_APPROVAL ( #144, ( #65 ) ) ;
#177 = CC_DESIGN_PERSON_AND_ORGANIZATION_ASSIGNMENT ( #146, #126, ( #52 ) ) ;
#178 = CYLINDRICAL_SURFACE ( 'NONE', #130, 1.500000000000000000 ) ;
#179 = FACE_OUTER_BOUND ( 'NONE', #57, .T. ) ;
#180 = PLANE ( 'NONE',  #113 ) ;
#181 = CIRCLE ( 'NONE', #190, 1.499999999999999778 ) ;
#182 = ORIENTED_EDGE ( 'NONE', *, *, #154, .F. ) ;
#183 = DIRECTION ( 'NONE',  ( 0.0000000000000000000, -1.000000000000000000, 0.0000000000000000000 ) ) ;
#184 = DIRECTION ( 'NONE',  ( 0.0000000000000000000, 1.000000000000000000, 0.0000000000000000000 ) ) ;
#185 = DIRECTION ( 'NONE',  ( -3.491481338843133355E-15, 1.224646799147353207E-16, -1.000000000000000000 ) ) ;
#186 = CARTESIAN_POINT ( 'NONE',  ( 1.316288464743861212E-13, -4.616918432785521081E-15, 37.69999999999999574 ) ) ;
#187 = ADVANCED_FACE ( 'NONE', ( #138 ), #80, .F. ) ;
#188 = PRODUCT_DEFINITION_SHAPE ( 'NONE', 'NONE',  #164 ) ;
#189 = PERSON_AND_ORGANIZATION_ROLE ( 'design_owner' ) ;
#190 = AXIS2_PLACEMENT_3D ( 'NONE', #122, #185, #59 ) ;
#191 = SECURITY_CLASSIFICATION_LEVEL ( 'unclassified' ) ;
#192 = PERSON_AND_ORGANIZATION_ROLE ( 'classification_officer' ) ;
#193 = AXIS2_PLACEMENT_3D ( 'NONE', #165, #133, #196 ) ;
#194 = APPROVAL_STATUS ( 'not_yet_approved' ) ;
#195 = ADVANCED_FACE ( 'NONE', ( #121, #159 ), #136, .T. ) ;
#196 = DIRECTION ( 'NONE',  ( 4.275831445896958607E-31, 1.000000000000000000, 1.224646799147353207E-16 ) ) ;
#197 = FACE_OUTER_BOUND ( 'NONE', #134, .T. ) ;
#198 = EDGE_LOOP ( 'NONE', ( #118 ) ) ;
#199 = CC_DESIGN_SECURITY_CLASSIFICATION ( #65, ( #52 ) ) ;
#200 = DIRECTION ( 'NONE',  ( 3.491481338843133355E-15, -1.224646799147353207E-16, 1.000000000000000000 ) ) ;
#201 = CARTESIAN_POINT ( 'NONE',  ( 1.326762908760390423E-13, 1.199999999999995515, 38.00000000000000000 ) ) ;
#202 = CC_DESIGN_PERSON_AND_ORGANIZATION_ASSIGNMENT ( #22, #32, ( #164 ) ) ;
#203 = FACE_OUTER_BOUND ( 'NONE', #117, .T. ) ;
ENDSEC;
END-ISO-10303-21;
