ISO-10303-21;
HEADER;
FILE_DESCRIPTION (( 'STEP AP203' ),
    '1' );
FILE_NAME ('326686.step',
    '2021-11-22T10:26:17',
    ( '' ),
    ( '' ),
    'SwSTEP 2.0',
    'SolidWorks 2019',
    '' );
FILE_SCHEMA (( 'CONFIG_CONTROL_DESIGN' ));
ENDSEC;

DATA;
#1 = APPROVAL_ROLE ( '' ) ;
#2 = APPLICATION_CONTEXT ( 'configuration controlled 3d designs of mechanical parts and assemblies' ) ;
#3 = EDGE_LOOP ( 'NONE', ( #35 ) ) ;
#4 = AXIS2_PLACEMENT_3D ( 'NONE', #117, #99, #88 ) ;
#5 = ORIENTED_EDGE ( 'NONE', *, *, #79, .F. ) ;
#6 = CARTESIAN_POINT ( 'NONE',  ( 1.414933005490535710E-14, -4.962916905510576175E-16, 4.052529193695645127 ) ) ;
#7 = ORIENTED_EDGE ( 'NONE', *, *, #89, .F. ) ;
#8 = DIRECTION ( 'NONE',  ( -3.491481338843133355E-15, 1.224646799147353207E-16, -1.000000000000000000 ) ) ;
#9 = DIRECTION ( 'NONE',  ( -3.491481338843133355E-15, 1.224646799147353207E-16, -1.000000000000000000 ) ) ;
#10 =( GEOMETRIC_REPRESENTATION_CONTEXT ( 3 ) GLOBAL_UNCERTAINTY_ASSIGNED_CONTEXT ( ( #29 ) ) GLOBAL_UNIT_ASSIGNED_CONTEXT ( ( #116, #197, #76 ) ) REPRESENTATION_CONTEXT ( 'NONE', 'WORKASPACE' ) );
#11 = CIRCLE ( 'NONE', #27, 1.500000000000000000 ) ;
#12 = PERSON_AND_ORGANIZATION ( #176, #190 ) ;
#13 = PRODUCT_DEFINITION ( 'UNKNOWN', '', #64, #101 ) ;
#14 = PERSON_AND_ORGANIZATION ( #176, #190 ) ;
#15 = COORDINATED_UNIVERSAL_TIME_OFFSET ( 1, 0, .AHEAD. ) ;
#16 = CARTESIAN_POINT ( 'NONE',  ( 0.0000000000000000000, 0.0000000000000000000, 0.0000000000000000000 ) ) ;
#17 = LOCAL_TIME ( 11, 26, 17.00000000000000000, #126 ) ;
#18 = ORIENTED_EDGE ( 'NONE', *, *, #21, .T. ) ;
#19 = EDGE_LOOP ( 'NONE', ( #181 ) ) ;
#20 = AXIS2_PLACEMENT_3D ( 'NONE', #6, #177, #110 ) ;
#21 = EDGE_CURVE ( 'NONE', #164, #164, #158, .T. ) ;
#22 = DATE_AND_TIME ( #168, #140 ) ;
#23 = DATE_TIME_ROLE ( 'creation_date' ) ;
#24 = APPROVAL_STATUS ( 'not_yet_approved' ) ;
#25 = CC_DESIGN_PERSON_AND_ORGANIZATION_ASSIGNMENT ( #78, #135, ( #64 ) ) ;
#26 = SHAPE_DEFINITION_REPRESENTATION ( #153, #57 ) ;
#27 = AXIS2_PLACEMENT_3D ( 'NONE', #180, #9, #120 ) ;
#28 = APPLICATION_PROTOCOL_DEFINITION ( 'international standard', 'config_control_design', 1994, #2 ) ;
#29 = UNCERTAINTY_MEASURE_WITH_UNIT (LENGTH_MEASURE( 1.000000000000000082E-05 ), #116, 'distance_accuracy_value', 'NONE');
#30 = PLANE ( 'NONE',  #106 ) ;
#31 = CARTESIAN_POINT ( 'NONE',  ( 1.414933005490535710E-14, -4.962916905510576175E-16, 4.052529193695645127 ) ) ;
#32 = APPROVAL_PERSON_ORGANIZATION ( #138, #192, #1 ) ;
#33 = FACE_OUTER_BOUND ( 'NONE', #19, .T. ) ;
#34 = DIRECTION ( 'NONE',  ( -3.491481338843133355E-15, 1.224646799147353207E-16, -1.000000000000000000 ) ) ;
#35 = ORIENTED_EDGE ( 'NONE', *, *, #202, .T. ) ;
#36 = DIRECTION ( 'NONE',  ( -3.491481338843133355E-15, 1.224646799147353207E-16, -1.000000000000000000 ) ) ;
#37 = FACE_OUTER_BOUND ( 'NONE', #87, .T. ) ;
#38 = APPROVAL_PERSON_ORGANIZATION ( #92, #50, #100 ) ;
#39 = ORIENTED_EDGE ( 'NONE', *, *, #202, .F. ) ;
#40 = CARTESIAN_POINT ( 'NONE',  ( 0.0000000000000000000, 0.0000000000000000000, 0.0000000000000000000 ) ) ;
#41 = PERSON_AND_ORGANIZATION_ROLE ( 'creator' ) ;
#42 = CC_DESIGN_DATE_AND_TIME_ASSIGNMENT ( #102, #23, ( #13 ) ) ;
#43 = APPROVAL_DATE_TIME ( #22, #50 ) ;
#44 = CALENDAR_DATE ( 2021, 22, 11 ) ;
#45 = FACE_BOUND ( 'NONE', #96, .T. ) ;
#46 = COORDINATED_UNIVERSAL_TIME_OFFSET ( 1, 0, .AHEAD. ) ;
#47 = CIRCLE ( 'NONE', #75, 1.499999999999999334 ) ;
#48 = ADVANCED_FACE ( 'NONE', ( #145 ), #193, .F. ) ;
#49 = CC_DESIGN_APPROVAL ( #192, ( #159 ) ) ;
#50 = APPROVAL ( #201, 'UNSPECIFIED' ) ;
#51 = CARTESIAN_POINT ( 'NONE',  ( 1.414933005490535710E-14, 2.343339176461733700E-15, 4.052529193695645127 ) ) ;
#52 = DIRECTION ( 'NONE',  ( 3.491481338843133355E-15, -1.224646799147353207E-16, 1.000000000000000000 ) ) ;
#53 = EDGE_LOOP ( 'NONE', ( #39 ) ) ;
#54 = CC_DESIGN_PERSON_AND_ORGANIZATION_ASSIGNMENT ( #12, #41, ( #13 ) ) ;
#55 = CARTESIAN_POINT ( 'NONE',  ( 1.326762908760390423E-13, 8.998558695971078593E-33, 38.00000000000000000 ) ) ;
#56 = VERTEX_POINT ( 'NONE', #185 ) ;
#57 = ADVANCED_BREP_SHAPE_REPRESENTATION ( '326686', ( #139, #74, #118 ), #10 ) ;
#58 = DIRECTION ( 'NONE',  ( 4.275831445896958607E-31, 1.000000000000000000, 1.224646799147353207E-16 ) ) ;
#59 = CC_DESIGN_PERSON_AND_ORGANIZATION_ASSIGNMENT ( #14, #124, ( #64 ) ) ;
#60 = AXIS2_PLACEMENT_3D ( 'NONE', #31, #36, #127 ) ;
#61 = PERSON_AND_ORGANIZATION ( #176, #190 ) ;
#62 = CALENDAR_DATE ( 2021, 22, 11 ) ;
#63 = PERSON_AND_ORGANIZATION ( #176, #190 ) ;
#64 = PRODUCT_DEFINITION_FORMATION_WITH_SPECIFIED_SOURCE ( 'ANY', '', #178, .NOT_KNOWN. ) ;
#65 = CARTESIAN_POINT ( 'NONE',  ( 1.316288464743861212E-13, -4.616918432785521081E-15, 37.69999999999999574 ) ) ;
#66 = APPROVAL ( #154, 'UNSPECIFIED' ) ;
#67 = CIRCLE ( 'NONE', #4, 0.02500000000000014710 ) ;
#68 = ORIENTED_EDGE ( 'NONE', *, *, #89, .T. ) ;
#69 = PLANE ( 'NONE',  #121 ) ;
#70 = ORIENTED_EDGE ( 'NONE', *, *, #21, .F. ) ;
#71 = VERTEX_POINT ( 'NONE', #183 ) ;
#72 = DIRECTION ( 'NONE',  ( 4.275831445896958607E-31, 1.000000000000000000, 1.224646799147353207E-16 ) ) ;
#73 = LOCAL_TIME ( 11, 26, 17.00000000000000000, #46 ) ;
#74 = MANIFOLD_SOLID_BREP ( 'Corps-Déplacer/Copier1[2]', #143 ) ;
#75 = AXIS2_PLACEMENT_3D ( 'NONE', #175, #34, #161 ) ;
#76 =( NAMED_UNIT ( * ) SI_UNIT ( $, .STERADIAN. ) SOLID_ANGLE_UNIT ( ) );
#77 = DIRECTION ( 'NONE',  ( -3.491481338843133355E-15, 1.224646799147353207E-16, -1.000000000000000000 ) ) ;
#78 = PERSON_AND_ORGANIZATION ( #176, #190 ) ;
#79 = EDGE_CURVE ( 'NONE', #71, #71, #67, .T. ) ;
#80 = PERSON_AND_ORGANIZATION_ROLE ( 'classification_officer' ) ;
#81 = CC_DESIGN_SECURITY_CLASSIFICATION ( #159, ( #64 ) ) ;
#82 = DATE_AND_TIME ( #44, #73 ) ;
#83 = APPLICATION_CONTEXT ( 'configuration controlled 3d designs of mechanical parts and assemblies' ) ;
#84 = CARTESIAN_POINT ( 'NONE',  ( 1.414933005490535710E-14, 2.343339176461733700E-15, 4.052529193695645127 ) ) ;
#85 = FACE_OUTER_BOUND ( 'NONE', #198, .T. ) ;
#86 = EDGE_LOOP ( 'NONE', ( #7 ) ) ;
#87 = EDGE_LOOP ( 'NONE', ( #179 ) ) ;
#88 = DIRECTION ( 'NONE',  ( 4.275831445896958607E-31, 1.000000000000000000, 1.224646799147353207E-16 ) ) ;
#89 = EDGE_CURVE ( 'NONE', #199, #199, #125, .T. ) ;
#90 = AXIS2_PLACEMENT_3D ( 'NONE', #40, #77, #58 ) ;
#91 = PERSON_AND_ORGANIZATION ( #176, #190 ) ;
#92 = PERSON_AND_ORGANIZATION ( #176, #190 ) ;
#93 = AXIS2_PLACEMENT_3D ( 'NONE', #51, #166, #129 ) ;
#94 = CALENDAR_DATE ( 2021, 22, 11 ) ;
#95 = DIRECTION ( 'NONE',  ( 0.0000000000000000000, 1.000000000000000000, 0.0000000000000000000 ) ) ;
#96 = EDGE_LOOP ( 'NONE', ( #68 ) ) ;
#97 = DIRECTION ( 'NONE',  ( 0.0000000000000000000, 1.000000000000000000, 0.0000000000000000000 ) ) ;
#98 = ORIENTED_EDGE ( 'NONE', *, *, #174, .F. ) ;
#99 = DIRECTION ( 'NONE',  ( -3.491481338843133355E-15, 1.224646799147353207E-16, -1.000000000000000000 ) ) ;
#100 = APPROVAL_ROLE ( '' ) ;
#101 = DESIGN_CONTEXT ( 'detailed design', #83, 'design' ) ;
#102 = DATE_AND_TIME ( #62, #137 ) ;
#103 = APPROVAL_PERSON_ORGANIZATION ( #91, #66, #104 ) ;
#104 = APPROVAL_ROLE ( '' ) ;
#105 = COORDINATED_UNIVERSAL_TIME_OFFSET ( 1, 0, .AHEAD. ) ;
#106 = AXIS2_PLACEMENT_3D ( 'NONE', #84, #111, #141 ) ;
#107 = FACE_OUTER_BOUND ( 'NONE', #162, .T. ) ;
#108 = CC_DESIGN_PERSON_AND_ORGANIZATION_ASSIGNMENT ( #63, #80, ( #159 ) ) ;
#109 = AXIS2_PLACEMENT_3D ( 'NONE', #55, #128, #72 ) ;
#110 = DIRECTION ( 'NONE',  ( 0.0000000000000000000, -1.000000000000000000, 0.0000000000000000000 ) ) ;
#111 = DIRECTION ( 'NONE',  ( 3.491481338843133355E-15, -1.224646799147353207E-16, 1.000000000000000000 ) ) ;
#112 = PRODUCT_RELATED_PRODUCT_CATEGORY ( 'detail', '', ( #178 ) ) ;
#113 = PLANE ( 'NONE',  #109 ) ;
#114 = EDGE_LOOP ( 'NONE', ( #18 ) ) ;
#115 = DIRECTION ( 'NONE',  ( -4.275831445896958607E-31, -1.000000000000000000, -1.224646799147353207E-16 ) ) ;
#116 =( LENGTH_UNIT ( ) NAMED_UNIT ( * ) SI_UNIT ( .MILLI., .METRE. ) );
#117 = CARTESIAN_POINT ( 'NONE',  ( -2.251917752963722095E-32, 7.898664207163976624E-34, -6.449748786885602247E-18 ) ) ;
#118 = AXIS2_PLACEMENT_3D ( 'NONE', #16, #187, #134 ) ;
#119 = ADVANCED_FACE ( 'NONE', ( #160 ), #113, .F. ) ;
#120 = DIRECTION ( 'NONE',  ( 0.0000000000000000000, 1.000000000000000000, 0.0000000000000000000 ) ) ;
#121 = AXIS2_PLACEMENT_3D ( 'NONE', #194, #52, #115 ) ;
#122 = PERSON_AND_ORGANIZATION_ROLE ( 'design_owner' ) ;
#123 = COORDINATED_UNIVERSAL_TIME_OFFSET ( 1, 0, .AHEAD. ) ;
#124 = PERSON_AND_ORGANIZATION_ROLE ( 'creator' ) ;
#125 = CIRCLE ( 'NONE', #165, 1.200000000000000178 ) ;
#126 = COORDINATED_UNIVERSAL_TIME_OFFSET ( 1, 0, .AHEAD. ) ;
#127 = DIRECTION ( 'NONE',  ( 0.0000000000000000000, 1.000000000000000000, 0.0000000000000000000 ) ) ;
#128 = DIRECTION ( 'NONE',  ( -3.491481338843133355E-15, 1.224646799147353207E-16, -1.000000000000000000 ) ) ;
#129 = DIRECTION ( 'NONE',  ( -4.275831445896958607E-31, -1.000000000000000000, -1.224646799147353207E-16 ) ) ;
#130 = CC_DESIGN_APPROVAL ( #66, ( #64 ) ) ;
#131 = FACE_OUTER_BOUND ( 'NONE', #53, .T. ) ;
#132 = CARTESIAN_POINT ( 'NONE',  ( 1.414933005490535710E-14, 1.499999999999998890, 4.052529193695645127 ) ) ;
#133 = CLOSED_SHELL ( 'NONE', ( #48, #186, #189, #119 ) ) ;
#134 = DIRECTION ( 'NONE',  ( 1.000000000000000000, 0.0000000000000000000, 0.0000000000000000000 ) ) ;
#135 = PERSON_AND_ORGANIZATION_ROLE ( 'design_supplier' ) ;
#136 = APPROVAL_DATE_TIME ( #156, #192 ) ;
#137 = LOCAL_TIME ( 11, 26, 17.00000000000000000, #123 ) ;
#138 = PERSON_AND_ORGANIZATION ( #176, #190 ) ;
#139 = MANIFOLD_SOLID_BREP ( 'Corps-Déplacer/Copier1[1]', #133 ) ;
#140 = LOCAL_TIME ( 11, 26, 17.00000000000000000, #15 ) ;
#141 = DIRECTION ( 'NONE',  ( -4.275831445896958607E-31, -1.000000000000000000, -1.224646799147353207E-16 ) ) ;
#142 = CC_DESIGN_PERSON_AND_ORGANIZATION_ASSIGNMENT ( #61, #122, ( #178 ) ) ;
#143 = CLOSED_SHELL ( 'NONE', ( #155, #150, #196 ) ) ;
#144 = EDGE_LOOP ( 'NONE', ( #5 ) ) ;
#145 = FACE_OUTER_BOUND ( 'NONE', #3, .T. ) ;
#146 = VERTEX_POINT ( 'NONE', #132 ) ;
#147 = CARTESIAN_POINT ( 'NONE',  ( 1.326762908760390423E-13, -4.653657836759941941E-15, 38.00000000000000000 ) ) ;
#148 = CC_DESIGN_DATE_AND_TIME_ASSIGNMENT ( #82, #171, ( #159 ) ) ;
#149 = LOCAL_TIME ( 11, 26, 17.00000000000000000, #105 ) ;
#150 = ADVANCED_FACE ( 'NONE', ( #182, #163 ), #200, .T. ) ;
#151 = CC_DESIGN_APPROVAL ( #50, ( #13 ) ) ;
#152 = APPLICATION_PROTOCOL_DEFINITION ( 'international standard', 'config_control_design', 1994, #83 ) ;
#153 = PRODUCT_DEFINITION_SHAPE ( 'NONE', 'NONE',  #13 ) ;
#154 = APPROVAL_STATUS ( 'not_yet_approved' ) ;
#155 = ADVANCED_FACE ( 'NONE', ( #33 ), #69, .F. ) ;
#156 = DATE_AND_TIME ( #172, #149 ) ;
#157 = DATE_AND_TIME ( #94, #17 ) ;
#158 = CIRCLE ( 'NONE', #60, 1.499999999999999334 ) ;
#159 = SECURITY_CLASSIFICATION ( '', '', #203 ) ;
#160 = FACE_OUTER_BOUND ( 'NONE', #86, .T. ) ;
#161 = DIRECTION ( 'NONE',  ( 0.0000000000000000000, 1.000000000000000000, 0.0000000000000000000 ) ) ;
#162 = EDGE_LOOP ( 'NONE', ( #70 ) ) ;
#163 = FACE_OUTER_BOUND ( 'NONE', #114, .T. ) ;
#164 = VERTEX_POINT ( 'NONE', #195 ) ;
#165 = AXIS2_PLACEMENT_3D ( 'NONE', #147, #8, #95 ) ;
#166 = DIRECTION ( 'NONE',  ( 3.491481338843133355E-15, -1.224646799147353207E-16, 1.000000000000000000 ) ) ;
#167 = CARTESIAN_POINT ( 'NONE',  ( 1.326762908760390423E-13, 1.199999999999995515, 38.00000000000000000 ) ) ;
#168 = CALENDAR_DATE ( 2021, 22, 11 ) ;
#169 = CONICAL_SURFACE ( 'NONE', #173, 1.500000000000000000, 0.7853981633974453924 ) ;
#170 = MECHANICAL_CONTEXT ( 'NONE', #2, 'mechanical' ) ;
#171 = DATE_TIME_ROLE ( 'classification_date' ) ;
#172 = CALENDAR_DATE ( 2021, 22, 11 ) ;
#173 = AXIS2_PLACEMENT_3D ( 'NONE', #65, #191, #97 ) ;
#174 = EDGE_CURVE ( 'NONE', #56, #56, #11, .T. ) ;
#175 = CARTESIAN_POINT ( 'NONE',  ( 1.414933005490535710E-14, -4.962916905510576175E-16, 4.052529193695645127 ) ) ;
#176 = PERSON ( 'UNSPECIFIED', 'UNSPECIFIED', 'UNSPECIFIED', ('UNSPECIFIED'), ('UNSPECIFIED'), ('UNSPECIFIED') ) ;
#177 = DIRECTION ( 'NONE',  ( 3.491481338843133355E-15, -1.224646799147353207E-16, 1.000000000000000000 ) ) ;
#178 = PRODUCT ( '326686', '326686', '', ( #170 ) ) ;
#179 = ORIENTED_EDGE ( 'NONE', *, *, #174, .T. ) ;
#180 = CARTESIAN_POINT ( 'NONE',  ( 1.316288464743861212E-13, -4.616918432785521081E-15, 37.69999999999999574 ) ) ;
#181 = ORIENTED_EDGE ( 'NONE', *, *, #79, .T. ) ;
#182 = FACE_BOUND ( 'NONE', #144, .T. ) ;
#183 = CARTESIAN_POINT ( 'NONE',  ( -1.182959891489475985E-32, 0.02500000000000014710, -3.388131789017201356E-18 ) ) ;
#184 = CYLINDRICAL_SURFACE ( 'NONE', #90, 1.499999999999999556 ) ;
#185 = CARTESIAN_POINT ( 'NONE',  ( 1.316288464743861212E-13, 1.499999999999995559, 37.69999999999999574 ) ) ;
#186 = ADVANCED_FACE ( 'NONE', ( #37, #131 ), #184, .T. ) ;
#187 = DIRECTION ( 'NONE',  ( 0.0000000000000000000, 0.0000000000000000000, 1.000000000000000000 ) ) ;
#188 = APPROVAL_DATE_TIME ( #157, #66 ) ;
#189 = ADVANCED_FACE ( 'NONE', ( #45, #85 ), #169, .T. ) ;
#190 = ORGANIZATION ( 'UNSPECIFIED', 'UNSPECIFIED', '' ) ;
#191 = DIRECTION ( 'NONE',  ( -3.491481338843133355E-15, 1.224646799147353207E-16, -1.000000000000000000 ) ) ;
#192 = APPROVAL ( #24, 'UNSPECIFIED' ) ;
#193 = PLANE ( 'NONE',  #93 ) ;
#194 = CARTESIAN_POINT ( 'NONE',  ( -1.125958876481861048E-32, 3.949332103581988312E-34, -3.224874393442801123E-18 ) ) ;
#195 = CARTESIAN_POINT ( 'NONE',  ( 1.414933005490535710E-14, 1.499999999999998890, 4.052529193695645127 ) ) ;
#196 = ADVANCED_FACE ( 'NONE', ( #107 ), #30, .T. ) ;
#197 =( NAMED_UNIT ( * ) PLANE_ANGLE_UNIT ( ) SI_UNIT ( $, .RADIAN. ) );
#198 = EDGE_LOOP ( 'NONE', ( #98 ) ) ;
#199 = VERTEX_POINT ( 'NONE', #167 ) ;
#200 = CONICAL_SURFACE ( 'NONE', #20, 1.499999999999999334, 0.3490658503988596228 ) ;
#201 = APPROVAL_STATUS ( 'not_yet_approved' ) ;
#202 = EDGE_CURVE ( 'NONE', #146, #146, #47, .T. ) ;
#203 = SECURITY_CLASSIFICATION_LEVEL ( 'unclassified' ) ;
ENDSEC;
END-ISO-10303-21;
