ISO-10303-21;
HEADER;
FILE_DESCRIPTION (( 'STEP AP203' ),
    '1' );
FILE_NAME ('326685.step',
    '2021-11-22T10:26:16',
    ( '' ),
    ( '' ),
    'SwSTEP 2.0',
    'SolidWorks 2019',
    '' );
FILE_SCHEMA (( 'CONFIG_CONTROL_DESIGN' ));
ENDSEC;

DATA;
#1 = ADVANCED_FACE ( 'NONE', ( #167 ), #26, .T. ) ;
#2 = DIRECTION ( 'NONE',  ( -3.491481338843133355E-15, 1.224646799147353207E-16, -1.000000000000000000 ) ) ;
#3 = AXIS2_PLACEMENT_3D ( 'NONE', #43, #44, #4 ) ;
#4 = DIRECTION ( 'NONE',  ( 1.000000000000000000, 0.0000000000000000000, 0.0000000000000000000 ) ) ;
#5 = PERSON_AND_ORGANIZATION ( #174, #118 ) ;
#6 = CC_DESIGN_PERSON_AND_ORGANIZATION_ASSIGNMENT ( #35, #177, ( #65 ) ) ;
#7 = CIRCLE ( 'NONE', #23, 1.200000000000000178 ) ;
#8 = COORDINATED_UNIVERSAL_TIME_OFFSET ( 1, 0, .AHEAD. ) ;
#9 = APPROVAL_STATUS ( 'not_yet_approved' ) ;
#10 = DIRECTION ( 'NONE',  ( 0.0000000000000000000, 1.000000000000000000, 0.0000000000000000000 ) ) ;
#11 = CC_DESIGN_PERSON_AND_ORGANIZATION_ASSIGNMENT ( #115, #79, ( #87 ) ) ;
#12 = ORIENTED_EDGE ( 'NONE', *, *, #162, .F. ) ;
#13 = DIRECTION ( 'NONE',  ( 3.491481338843133355E-15, -1.224646799147353207E-16, 1.000000000000000000 ) ) ;
#14 = CONICAL_SURFACE ( 'NONE', #122, 1.500000000000000000, 0.3054326190990009904 ) ;
#15 = DIRECTION ( 'NONE',  ( 3.491481338843133355E-15, -1.224646799147353207E-16, 1.000000000000000000 ) ) ;
#16 = CARTESIAN_POINT ( 'NONE',  ( 1.605666789689377207E-14, -5.631920963214542358E-16, 4.598812463426765973 ) ) ;
#17 = CARTESIAN_POINT ( 'NONE',  ( 1.326762908760390423E-13, 1.199999999999995515, 38.00000000000000000 ) ) ;
#18 = ADVANCED_BREP_SHAPE_REPRESENTATION ( '326685', ( #138, #132, #3 ), #179 ) ;
#19 = DATE_AND_TIME ( #80, #160 ) ;
#20 = EDGE_CURVE ( 'NONE', #31, #31, #7, .T. ) ;
#21 = DATE_AND_TIME ( #143, #175 ) ;
#22 = CALENDAR_DATE ( 2021, 22, 11 ) ;
#23 = AXIS2_PLACEMENT_3D ( 'NONE', #56, #40, #10 ) ;
#24 = ORIENTED_EDGE ( 'NONE', *, *, #197, .F. ) ;
#25 = EDGE_LOOP ( 'NONE', ( #102 ) ) ;
#26 = PLANE ( 'NONE',  #41 ) ;
#27 = LOCAL_TIME ( 11, 26, 16.00000000000000000, #142 ) ;
#28 = PERSON_AND_ORGANIZATION_ROLE ( 'design_owner' ) ;
#29 = DIRECTION ( 'NONE',  ( 4.275831445896958607E-31, 1.000000000000000000, 1.224646799147353207E-16 ) ) ;
#30 = UNCERTAINTY_MEASURE_WITH_UNIT (LENGTH_MEASURE( 1.000000000000000082E-05 ), #93, 'distance_accuracy_value', 'NONE');
#31 = VERTEX_POINT ( 'NONE', #17 ) ;
#32 = CALENDAR_DATE ( 2021, 22, 11 ) ;
#33 = PERSON_AND_ORGANIZATION ( #174, #118 ) ;
#34 = APPROVAL ( #64, 'UNSPECIFIED' ) ;
#35 = PERSON_AND_ORGANIZATION ( #174, #118 ) ;
#36 = ORIENTED_EDGE ( 'NONE', *, *, #114, .T. ) ;
#37 = CC_DESIGN_PERSON_AND_ORGANIZATION_ASSIGNMENT ( #33, #81, ( #187 ) ) ;
#38 = PLANE ( 'NONE',  #164 ) ;
#39 = EDGE_LOOP ( 'NONE', ( #72 ) ) ;
#40 = DIRECTION ( 'NONE',  ( -3.491481338843133355E-15, 1.224646799147353207E-16, -1.000000000000000000 ) ) ;
#41 = AXIS2_PLACEMENT_3D ( 'NONE', #88, #13, #71 ) ;
#42 = FACE_BOUND ( 'NONE', #201, .T. ) ;
#43 = CARTESIAN_POINT ( 'NONE',  ( 0.0000000000000000000, 0.0000000000000000000, 0.0000000000000000000 ) ) ;
#44 = DIRECTION ( 'NONE',  ( 0.0000000000000000000, 0.0000000000000000000, 1.000000000000000000 ) ) ;
#45 = MECHANICAL_CONTEXT ( 'NONE', #176, 'mechanical' ) ;
#46 = AXIS2_PLACEMENT_3D ( 'NONE', #131, #52, #119 ) ;
#47 = DATE_TIME_ROLE ( 'creation_date' ) ;
#48 = COORDINATED_UNIVERSAL_TIME_OFFSET ( 1, 0, .AHEAD. ) ;
#49 = APPROVAL_ROLE ( '' ) ;
#50 = ADVANCED_FACE ( 'NONE', ( #121 ), #104, .F. ) ;
#51 = FACE_BOUND ( 'NONE', #69, .T. ) ;
#52 = DIRECTION ( 'NONE',  ( -3.491481338843133355E-15, 1.224646799147353207E-16, -1.000000000000000000 ) ) ;
#53 = AXIS2_PLACEMENT_3D ( 'NONE', #16, #91, #171 ) ;
#54 = ORIENTED_EDGE ( 'NONE', *, *, #184, .F. ) ;
#55 = ADVANCED_FACE ( 'NONE', ( #42, #169 ), #147, .T. ) ;
#56 = CARTESIAN_POINT ( 'NONE',  ( 1.326762908760390423E-13, -4.653657836759941941E-15, 38.00000000000000000 ) ) ;
#57 = DIRECTION ( 'NONE',  ( 4.275831445896958607E-31, 1.000000000000000000, 1.224646799147353207E-16 ) ) ;
#58 = AXIS2_PLACEMENT_3D ( 'NONE', #84, #67, #130 ) ;
#59 = DIRECTION ( 'NONE',  ( -3.491481338843133355E-15, 1.224646799147353207E-16, -1.000000000000000000 ) ) ;
#60 = FACE_OUTER_BOUND ( 'NONE', #89, .T. ) ;
#61 = DIRECTION ( 'NONE',  ( -3.491481338843133355E-15, 1.224646799147353207E-16, -1.000000000000000000 ) ) ;
#62 = COORDINATED_UNIVERSAL_TIME_OFFSET ( 1, 0, .AHEAD. ) ;
#63 = CC_DESIGN_PERSON_AND_ORGANIZATION_ASSIGNMENT ( #146, #98, ( #65 ) ) ;
#64 = APPROVAL_STATUS ( 'not_yet_approved' ) ;
#65 = PRODUCT_DEFINITION_FORMATION_WITH_SPECIFIED_SOURCE ( 'ANY', '', #186, .NOT_KNOWN. ) ;
#66 = PRODUCT_RELATED_PRODUCT_CATEGORY ( 'detail', '', ( #186 ) ) ;
#67 = DIRECTION ( 'NONE',  ( -3.491481338843133355E-15, 1.224646799147353207E-16, -1.000000000000000000 ) ) ;
#68 = ORIENTED_EDGE ( 'NONE', *, *, #20, .F. ) ;
#69 = EDGE_LOOP ( 'NONE', ( #12 ) ) ;
#70 = CC_DESIGN_APPROVAL ( #151, ( #87 ) ) ;
#71 = DIRECTION ( 'NONE',  ( -4.275831445896958607E-31, -1.000000000000000000, -1.224646799147353207E-16 ) ) ;
#72 = ORIENTED_EDGE ( 'NONE', *, *, #184, .T. ) ;
#73 = APPLICATION_PROTOCOL_DEFINITION ( 'international standard', 'config_control_design', 1994, #176 ) ;
#74 = APPROVAL_PERSON_ORGANIZATION ( #107, #151, #128 ) ;
#75 = CARTESIAN_POINT ( 'NONE',  ( 1.605666789689377207E-14, 1.499999999999999334, 4.598812463426765973 ) ) ;
#76 = VERTEX_POINT ( 'NONE', #110 ) ;
#77 = APPROVAL ( #117, 'UNSPECIFIED' ) ;
#78 = PLANE ( 'NONE',  #92 ) ;
#79 = PERSON_AND_ORGANIZATION_ROLE ( 'creator' ) ;
#80 = CALENDAR_DATE ( 2021, 22, 11 ) ;
#81 = PERSON_AND_ORGANIZATION_ROLE ( 'classification_officer' ) ;
#82 = APPROVAL_PERSON_ORGANIZATION ( #5, #77, #49 ) ;
#83 = DATE_AND_TIME ( #22, #137 ) ;
#84 = CARTESIAN_POINT ( 'NONE',  ( 1.316288464743861212E-13, -4.616918432785521081E-15, 37.69999999999999574 ) ) ;
#85 = CIRCLE ( 'NONE', #192, 0.04999999999999988481 ) ;
#86 = DIRECTION ( 'NONE',  ( 3.491481338843133355E-15, -1.224646799147353207E-16, 1.000000000000000000 ) ) ;
#87 = PRODUCT_DEFINITION ( 'UNKNOWN', '', #65, #103 ) ;
#88 = CARTESIAN_POINT ( 'NONE',  ( 1.605666789689377207E-14, 1.124819836996392248E-32, 4.598812463426765973 ) ) ;
#89 = EDGE_LOOP ( 'NONE', ( #150 ) ) ;
#90 = CARTESIAN_POINT ( 'NONE',  ( -7.732178886018681512E-33, 2.712083269027307875E-34, -2.214584050614075514E-18 ) ) ;
#91 = DIRECTION ( 'NONE',  ( -3.491481338843133355E-15, 1.224646799147353207E-16, -1.000000000000000000 ) ) ;
#92 = AXIS2_PLACEMENT_3D ( 'NONE', #157, #111, #139 ) ;
#93 =( LENGTH_UNIT ( ) NAMED_UNIT ( * ) SI_UNIT ( .MILLI., .METRE. ) );
#94 = ADVANCED_FACE ( 'NONE', ( #51, #101 ), #14, .T. ) ;
#95 = CARTESIAN_POINT ( 'NONE',  ( 1.316288464743861212E-13, 1.499999999999995559, 37.69999999999999574 ) ) ;
#96 = AXIS2_PLACEMENT_3D ( 'NONE', #153, #202, #57 ) ;
#97 = APPROVAL_DATE_TIME ( #21, #34 ) ;
#98 = PERSON_AND_ORGANIZATION_ROLE ( 'design_supplier' ) ;
#99 = DATE_AND_TIME ( #32, #27 ) ;
#100 = CIRCLE ( 'NONE', #181, 1.500000000000000000 ) ;
#101 = FACE_OUTER_BOUND ( 'NONE', #166, .T. ) ;
#102 = ORIENTED_EDGE ( 'NONE', *, *, #114, .F. ) ;
#103 = DESIGN_CONTEXT ( 'detailed design', #116, 'design' ) ;
#104 = PLANE ( 'NONE',  #96 ) ;
#105 = CLOSED_SHELL ( 'NONE', ( #190, #195, #55, #50 ) ) ;
#106 = CC_DESIGN_PERSON_AND_ORGANIZATION_ASSIGNMENT ( #112, #28, ( #186 ) ) ;
#107 = PERSON_AND_ORGANIZATION ( #174, #118 ) ;
#108 = DIRECTION ( 'NONE',  ( 0.0000000000000000000, 1.000000000000000000, 0.0000000000000000000 ) ) ;
#109 = APPROVAL_PERSON_ORGANIZATION ( #161, #34, #196 ) ;
#110 = CARTESIAN_POINT ( 'NONE',  ( 5.914799457447381976E-33, 0.04999999999999988481, 1.694065894508600678E-18 ) ) ;
#111 = DIRECTION ( 'NONE',  ( 3.491481338843133355E-15, -1.224646799147353207E-16, 1.000000000000000000 ) ) ;
#112 = PERSON_AND_ORGANIZATION ( #174, #118 ) ;
#113 = DATE_TIME_ROLE ( 'classification_date' ) ;
#114 = EDGE_CURVE ( 'NONE', #154, #154, #173, .T. ) ;
#115 = PERSON_AND_ORGANIZATION ( #174, #118 ) ;
#116 = APPLICATION_CONTEXT ( 'configuration controlled 3d designs of mechanical parts and assemblies' ) ;
#117 = APPROVAL_STATUS ( 'not_yet_approved' ) ;
#118 = ORGANIZATION ( 'UNSPECIFIED', 'UNSPECIFIED', '' ) ;
#119 = DIRECTION ( 'NONE',  ( 0.0000000000000000000, 1.000000000000000000, 0.0000000000000000000 ) ) ;
#120 = EDGE_LOOP ( 'NONE', ( #24 ) ) ;
#121 = FACE_OUTER_BOUND ( 'NONE', #135, .T. ) ;
#122 = AXIS2_PLACEMENT_3D ( 'NONE', #165, #86, #149 ) ;
#123 = APPLICATION_PROTOCOL_DEFINITION ( 'international standard', 'config_control_design', 1994, #116 ) ;
#124 = VERTEX_POINT ( 'NONE', #136 ) ;
#125 = FACE_OUTER_BOUND ( 'NONE', #120, .T. ) ;
#126 = SHAPE_DEFINITION_REPRESENTATION ( #152, #18 ) ;
#127 = CALENDAR_DATE ( 2021, 22, 11 ) ;
#128 = APPROVAL_ROLE ( '' ) ;
#129 = CLOSED_SHELL ( 'NONE', ( #141, #94, #1 ) ) ;
#130 = DIRECTION ( 'NONE',  ( 0.0000000000000000000, 1.000000000000000000, 0.0000000000000000000 ) ) ;
#131 = CARTESIAN_POINT ( 'NONE',  ( 1.605666789689377207E-14, -5.631920963214542358E-16, 4.598812463426765973 ) ) ;
#132 = MANIFOLD_SOLID_BREP ( 'Corps-Déplacer/Copier1[2]', #129 ) ;
#133 = ORIENTED_EDGE ( 'NONE', *, *, #20, .T. ) ;
#134 = EDGE_LOOP ( 'NONE', ( #54 ) ) ;
#135 = EDGE_LOOP ( 'NONE', ( #68 ) ) ;
#136 = CARTESIAN_POINT ( 'NONE',  ( 1.605666789689377207E-14, 1.499999999999999334, 4.598812463426765973 ) ) ;
#137 = LOCAL_TIME ( 11, 26, 16.00000000000000000, #8 ) ;
#138 = MANIFOLD_SOLID_BREP ( 'Corps-Déplacer/Copier1[1]', #105 ) ;
#139 = DIRECTION ( 'NONE',  ( -4.275831445896958607E-31, -1.000000000000000000, -1.224646799147353207E-16 ) ) ;
#140 =( NAMED_UNIT ( * ) PLANE_ANGLE_UNIT ( ) SI_UNIT ( $, .RADIAN. ) );
#141 = ADVANCED_FACE ( 'NONE', ( #183 ), #38, .F. ) ;
#142 = COORDINATED_UNIVERSAL_TIME_OFFSET ( 1, 0, .AHEAD. ) ;
#143 = CALENDAR_DATE ( 2021, 22, 11 ) ;
#144 = CIRCLE ( 'NONE', #53, 1.500000000000000000 ) ;
#145 = CC_DESIGN_DATE_AND_TIME_ASSIGNMENT ( #83, #113, ( #187 ) ) ;
#146 = PERSON_AND_ORGANIZATION ( #174, #118 ) ;
#147 = CONICAL_SURFACE ( 'NONE', #58, 1.500000000000000000, 0.7853981633974453924 ) ;
#148 = CC_DESIGN_DATE_AND_TIME_ASSIGNMENT ( #99, #47, ( #87 ) ) ;
#149 = DIRECTION ( 'NONE',  ( 0.0000000000000000000, -1.000000000000000000, 0.0000000000000000000 ) ) ;
#150 = ORIENTED_EDGE ( 'NONE', *, *, #197, .T. ) ;
#151 = APPROVAL ( #9, 'UNSPECIFIED' ) ;
#152 = PRODUCT_DEFINITION_SHAPE ( 'NONE', 'NONE',  #87 ) ;
#153 = CARTESIAN_POINT ( 'NONE',  ( 1.326762908760390423E-13, 8.998558695971078593E-33, 38.00000000000000000 ) ) ;
#154 = VERTEX_POINT ( 'NONE', #75 ) ;
#155 = FACE_OUTER_BOUND ( 'NONE', #39, .T. ) ;
#156 = CC_DESIGN_APPROVAL ( #34, ( #187 ) ) ;
#157 = CARTESIAN_POINT ( 'NONE',  ( 1.605666789689377207E-14, 1.124819836996392248E-32, 4.598812463426765973 ) ) ;
#158 = DIRECTION ( 'NONE',  ( 4.275831445896959482E-31, 1.000000000000000000, 1.224646799147353207E-16 ) ) ;
#159 = CARTESIAN_POINT ( 'NONE',  ( 1.316288464743861212E-13, -4.616918432785521081E-15, 37.69999999999999574 ) ) ;
#160 = LOCAL_TIME ( 11, 26, 16.00000000000000000, #180 ) ;
#161 = PERSON_AND_ORGANIZATION ( #174, #118 ) ;
#162 = EDGE_CURVE ( 'NONE', #76, #76, #85, .T. ) ;
#163 = DATE_AND_TIME ( #127, #182 ) ;
#164 = AXIS2_PLACEMENT_3D ( 'NONE', #90, #15, #191 ) ;
#165 = CARTESIAN_POINT ( 'NONE',  ( 1.605666789689377207E-14, -5.631920963214542358E-16, 4.598812463426765973 ) ) ;
#166 = EDGE_LOOP ( 'NONE', ( #36 ) ) ;
#167 = FACE_OUTER_BOUND ( 'NONE', #25, .T. ) ;
#168 = CC_DESIGN_SECURITY_CLASSIFICATION ( #187, ( #65 ) ) ;
#169 = FACE_OUTER_BOUND ( 'NONE', #134, .T. ) ;
#170 = CARTESIAN_POINT ( 'NONE',  ( -1.546435777203736302E-32, 5.424166538054615750E-34, -4.429168101228151029E-18 ) ) ;
#171 = DIRECTION ( 'NONE',  ( 0.0000000000000000000, 1.000000000000000000, 0.0000000000000000000 ) ) ;
#172 = CYLINDRICAL_SURFACE ( 'NONE', #199, 1.500000000000000000 ) ;
#173 = CIRCLE ( 'NONE', #46, 1.500000000000000000 ) ;
#174 = PERSON ( 'UNSPECIFIED', 'UNSPECIFIED', 'UNSPECIFIED', ('UNSPECIFIED'), ('UNSPECIFIED'), ('UNSPECIFIED') ) ;
#175 = LOCAL_TIME ( 11, 26, 16.00000000000000000, #48 ) ;
#176 = APPLICATION_CONTEXT ( 'configuration controlled 3d designs of mechanical parts and assemblies' ) ;
#177 = PERSON_AND_ORGANIZATION_ROLE ( 'creator' ) ;
#178 = APPROVAL_DATE_TIME ( #163, #77 ) ;
#179 =( GEOMETRIC_REPRESENTATION_CONTEXT ( 3 ) GLOBAL_UNCERTAINTY_ASSIGNED_CONTEXT ( ( #30 ) ) GLOBAL_UNIT_ASSIGNED_CONTEXT ( ( #93, #140, #189 ) ) REPRESENTATION_CONTEXT ( 'NONE', 'WORKASPACE' ) );
#180 = COORDINATED_UNIVERSAL_TIME_OFFSET ( 1, 0, .AHEAD. ) ;
#181 = AXIS2_PLACEMENT_3D ( 'NONE', #159, #61, #108 ) ;
#182 = LOCAL_TIME ( 11, 26, 16.00000000000000000, #62 ) ;
#183 = FACE_OUTER_BOUND ( 'NONE', #185, .T. ) ;
#184 = EDGE_CURVE ( 'NONE', #203, #203, #100, .T. ) ;
#185 = EDGE_LOOP ( 'NONE', ( #198 ) ) ;
#186 = PRODUCT ( '326685', '326685', '', ( #45 ) ) ;
#187 = SECURITY_CLASSIFICATION ( '', '', #193 ) ;
#188 = CARTESIAN_POINT ( 'NONE',  ( 0.0000000000000000000, 0.0000000000000000000, 0.0000000000000000000 ) ) ;
#189 =( NAMED_UNIT ( * ) SI_UNIT ( $, .STERADIAN. ) SOLID_ANGLE_UNIT ( ) );
#190 = ADVANCED_FACE ( 'NONE', ( #60 ), #78, .F. ) ;
#191 = DIRECTION ( 'NONE',  ( -4.275831445896958607E-31, -1.000000000000000000, -1.224646799147353207E-16 ) ) ;
#192 = AXIS2_PLACEMENT_3D ( 'NONE', #170, #2, #29 ) ;
#193 = SECURITY_CLASSIFICATION_LEVEL ( 'unclassified' ) ;
#194 = APPROVAL_DATE_TIME ( #19, #151 ) ;
#195 = ADVANCED_FACE ( 'NONE', ( #155, #125 ), #172, .T. ) ;
#196 = APPROVAL_ROLE ( '' ) ;
#197 = EDGE_CURVE ( 'NONE', #124, #124, #144, .T. ) ;
#198 = ORIENTED_EDGE ( 'NONE', *, *, #162, .T. ) ;
#199 = AXIS2_PLACEMENT_3D ( 'NONE', #188, #59, #158 ) ;
#200 = CC_DESIGN_APPROVAL ( #77, ( #65 ) ) ;
#201 = EDGE_LOOP ( 'NONE', ( #133 ) ) ;
#202 = DIRECTION ( 'NONE',  ( -3.491481338843133355E-15, 1.224646799147353207E-16, -1.000000000000000000 ) ) ;
#203 = VERTEX_POINT ( 'NONE', #95 ) ;
ENDSEC;
END-ISO-10303-21;
