ISO-10303-21;
HEADER;
FILE_DESCRIPTION (( 'STEP AP203' ),
    '1' );
FILE_NAME ('326684.step',
    '2021-11-22T10:26:16',
    ( '' ),
    ( '' ),
    'SwSTEP 2.0',
    'SolidWorks 2019',
    '' );
FILE_SCHEMA (( 'CONFIG_CONTROL_DESIGN' ));
ENDSEC;

DATA;
#1 = FACE_OUTER_BOUND ( 'NONE', #3, .T. ) ;
#2 = CC_DESIGN_PERSON_AND_ORGANIZATION_ASSIGNMENT ( #185, #115, ( #5 ) ) ;
#3 = EDGE_LOOP ( 'NONE', ( #69 ) ) ;
#4 = DIRECTION ( 'NONE',  ( 3.491481338843133355E-15, -1.224646799147353207E-16, 1.000000000000000000 ) ) ;
#5 = PRODUCT_DEFINITION_FORMATION_WITH_SPECIFIED_SOURCE ( 'ANY', '', #132, .NOT_KNOWN. ) ;
#6 = DIRECTION ( 'NONE',  ( 0.0000000000000000000, 0.0000000000000000000, 1.000000000000000000 ) ) ;
#7 = SHAPE_DEFINITION_REPRESENTATION ( #129, #24 ) ;
#8 = AXIS2_PLACEMENT_3D ( 'NONE', #111, #75, #59 ) ;
#9 = PRODUCT_RELATED_PRODUCT_CATEGORY ( 'detail', '', ( #132 ) ) ;
#10 = PERSON_AND_ORGANIZATION_ROLE ( 'design_supplier' ) ;
#11 = AXIS2_PLACEMENT_3D ( 'NONE', #17, #6, #146 ) ;
#12 = DIRECTION ( 'NONE',  ( 3.491481338843133355E-15, -1.224646799147353207E-16, 1.000000000000000000 ) ) ;
#13 = CARTESIAN_POINT ( 'NONE',  ( 1.616740353756199947E-14, -5.670761797443607828E-16, 4.630528411450397286 ) ) ;
#14 = ORIENTED_EDGE ( 'NONE', *, *, #61, .T. ) ;
#15 = PLANE ( 'NONE',  #71 ) ;
#16 = APPROVAL_STATUS ( 'not_yet_approved' ) ;
#17 = CARTESIAN_POINT ( 'NONE',  ( 0.0000000000000000000, 0.0000000000000000000, 0.0000000000000000000 ) ) ;
#18 = AXIS2_PLACEMENT_3D ( 'NONE', #88, #157, #107 ) ;
#19 = PLANE ( 'NONE',  #22 ) ;
#20 = PERSON_AND_ORGANIZATION ( #89, #37 ) ;
#21 = APPROVAL ( #16, 'UNSPECIFIED' ) ;
#22 = AXIS2_PLACEMENT_3D ( 'NONE', #199, #4, #134 ) ;
#23 = PERSON_AND_ORGANIZATION ( #89, #37 ) ;
#24 = ADVANCED_BREP_SHAPE_REPRESENTATION ( '326684', ( #123, #128, #11 ), #76 ) ;
#25 = CALENDAR_DATE ( 2021, 22, 11 ) ;
#26 = CARTESIAN_POINT ( 'NONE',  ( 0.0000000000000000000, 0.0000000000000000000, 0.0000000000000000000 ) ) ;
#27 = ADVANCED_FACE ( 'NONE', ( #105, #108 ), #117, .T. ) ;
#28 = AXIS2_PLACEMENT_3D ( 'NONE', #48, #149, #77 ) ;
#29 = DIRECTION ( 'NONE',  ( 4.275831445896958607E-31, 1.000000000000000000, 1.224646799147353207E-16 ) ) ;
#30 = CARTESIAN_POINT ( 'NONE',  ( 1.316288464743861212E-13, -4.616918432785521081E-15, 37.69999999999999574 ) ) ;
#31 = APPROVAL_PERSON_ORGANIZATION ( #23, #73, #137 ) ;
#32 =( NAMED_UNIT ( * ) PLANE_ANGLE_UNIT ( ) SI_UNIT ( $, .RADIAN. ) );
#33 = ADVANCED_FACE ( 'NONE', ( #171, #141 ), #85, .T. ) ;
#34 = VERTEX_POINT ( 'NONE', #74 ) ;
#35 = APPROVAL_PERSON_ORGANIZATION ( #139, #58, #78 ) ;
#36 = SECURITY_CLASSIFICATION_LEVEL ( 'unclassified' ) ;
#37 = ORGANIZATION ( 'UNSPECIFIED', 'UNSPECIFIED', '' ) ;
#38 = COORDINATED_UNIVERSAL_TIME_OFFSET ( 1, 0, .AHEAD. ) ;
#39 = COORDINATED_UNIVERSAL_TIME_OFFSET ( 1, 0, .AHEAD. ) ;
#40 = EDGE_LOOP ( 'NONE', ( #52 ) ) ;
#41 = ORIENTED_EDGE ( 'NONE', *, *, #136, .T. ) ;
#42 = FACE_OUTER_BOUND ( 'NONE', #145, .T. ) ;
#43 = LOCAL_TIME ( 11, 26, 16.00000000000000000, #151 ) ;
#44 = CARTESIAN_POINT ( 'NONE',  ( 1.316288464743861212E-13, -4.616918432785521081E-15, 37.69999999999999574 ) ) ;
#45 = VERTEX_POINT ( 'NONE', #180 ) ;
#46 = APPLICATION_PROTOCOL_DEFINITION ( 'international standard', 'config_control_design', 1994, #103 ) ;
#47 = CC_DESIGN_DATE_AND_TIME_ASSIGNMENT ( #183, #113, ( #164 ) ) ;
#48 = CARTESIAN_POINT ( 'NONE',  ( 1.616740353756199947E-14, -5.670761797443607828E-16, 4.630528411450397286 ) ) ;
#49 = DIRECTION ( 'NONE',  ( -3.491481338843133355E-15, 1.224646799147353207E-16, -1.000000000000000000 ) ) ;
#50 = CARTESIAN_POINT ( 'NONE',  ( 1.616740353756199947E-14, 1.499999999999999112, 4.630528411450397286 ) ) ;
#51 = COORDINATED_UNIVERSAL_TIME_OFFSET ( 1, 0, .AHEAD. ) ;
#52 = ORIENTED_EDGE ( 'NONE', *, *, #99, .F. ) ;
#53 = ADVANCED_FACE ( 'NONE', ( #42 ), #104, .F. ) ;
#54 = DIRECTION ( 'NONE',  ( -4.275831445896958607E-31, -1.000000000000000000, -1.224646799147353207E-16 ) ) ;
#55 = ORIENTED_EDGE ( 'NONE', *, *, #120, .F. ) ;
#56 = AXIS2_PLACEMENT_3D ( 'NONE', #44, #125, #193 ) ;
#57 = EDGE_LOOP ( 'NONE', ( #66 ) ) ;
#58 = APPROVAL ( #116, 'UNSPECIFIED' ) ;
#59 = DIRECTION ( 'NONE',  ( 4.275831445896958607E-31, 1.000000000000000000, 1.224646799147353207E-16 ) ) ;
#60 = CARTESIAN_POINT ( 'NONE',  ( 1.326762908760390423E-13, -4.653657836759941941E-15, 38.00000000000000000 ) ) ;
#61 = EDGE_CURVE ( 'NONE', #45, #45, #188, .T. ) ;
#62 = CALENDAR_DATE ( 2021, 22, 11 ) ;
#63 = LOCAL_TIME ( 11, 26, 16.00000000000000000, #166 ) ;
#64 = DIRECTION ( 'NONE',  ( -4.275831445896958607E-31, -1.000000000000000000, -1.224646799147353207E-16 ) ) ;
#65 = DESIGN_CONTEXT ( 'detailed design', #103, 'design' ) ;
#66 = ORIENTED_EDGE ( 'NONE', *, *, #120, .T. ) ;
#67 = CIRCLE ( 'NONE', #8, 0.04000000000000036859 ) ;
#68 = ORIENTED_EDGE ( 'NONE', *, *, #136, .F. ) ;
#69 = ORIENTED_EDGE ( 'NONE', *, *, #177, .F. ) ;
#70 = EDGE_LOOP ( 'NONE', ( #14 ) ) ;
#71 = AXIS2_PLACEMENT_3D ( 'NONE', #194, #197, #29 ) ;
#72 = MECHANICAL_CONTEXT ( 'NONE', #122, 'mechanical' ) ;
#73 = APPROVAL ( #84, 'UNSPECIFIED' ) ;
#74 = CARTESIAN_POINT ( 'NONE',  ( 1.326762908760390423E-13, 1.199999999999995515, 38.00000000000000000 ) ) ;
#75 = DIRECTION ( 'NONE',  ( -3.491481338843133355E-15, 1.224646799147353207E-16, -1.000000000000000000 ) ) ;
#76 =( GEOMETRIC_REPRESENTATION_CONTEXT ( 3 ) GLOBAL_UNCERTAINTY_ASSIGNED_CONTEXT ( ( #86 ) ) GLOBAL_UNIT_ASSIGNED_CONTEXT ( ( #175, #32, #95 ) ) REPRESENTATION_CONTEXT ( 'NONE', 'WORKASPACE' ) );
#77 = DIRECTION ( 'NONE',  ( 0.0000000000000000000, 1.000000000000000000, 0.0000000000000000000 ) ) ;
#78 = APPROVAL_ROLE ( '' ) ;
#79 = PERSON_AND_ORGANIZATION ( #89, #37 ) ;
#80 = AXIS2_PLACEMENT_3D ( 'NONE', #30, #49, #178 ) ;
#81 = APPROVAL_DATE_TIME ( #203, #58 ) ;
#82 = ADVANCED_FACE ( 'NONE', ( #87 ), #156, .F. ) ;
#83 = CALENDAR_DATE ( 2021, 22, 11 ) ;
#84 = APPROVAL_STATUS ( 'not_yet_approved' ) ;
#85 = CONICAL_SURFACE ( 'NONE', #18, 1.499999999999999778, 0.3054326190990009349 ) ;
#86 = UNCERTAINTY_MEASURE_WITH_UNIT (LENGTH_MEASURE( 1.000000000000000082E-05 ), #175, 'distance_accuracy_value', 'NONE');
#87 = FACE_OUTER_BOUND ( 'NONE', #143, .T. ) ;
#88 = CARTESIAN_POINT ( 'NONE',  ( 1.616740353756199947E-14, -5.670761797443607828E-16, 4.630528411450397286 ) ) ;
#89 = PERSON ( 'UNSPECIFIED', 'UNSPECIFIED', 'UNSPECIFIED', ('UNSPECIFIED'), ('UNSPECIFIED'), ('UNSPECIFIED') ) ;
#90 = LOCAL_TIME ( 11, 26, 16.00000000000000000, #39 ) ;
#91 = ORIENTED_EDGE ( 'NONE', *, *, #99, .T. ) ;
#92 = AXIS2_PLACEMENT_3D ( 'NONE', #60, #133, #198 ) ;
#93 = ADVANCED_FACE ( 'NONE', ( #140, #1 ), #172, .T. ) ;
#94 = PERSON_AND_ORGANIZATION ( #89, #37 ) ;
#95 =( NAMED_UNIT ( * ) SI_UNIT ( $, .STERADIAN. ) SOLID_ANGLE_UNIT ( ) );
#96 = VERTEX_POINT ( 'NONE', #109 ) ;
#97 = DATE_AND_TIME ( #25, #90 ) ;
#98 = APPROVAL_DATE_TIME ( #182, #73 ) ;
#99 = EDGE_CURVE ( 'NONE', #34, #34, #130, .T. ) ;
#100 = CLOSED_SHELL ( 'NONE', ( #53, #93, #27, #202 ) ) ;
#101 = APPROVAL_DATE_TIME ( #169, #21 ) ;
#102 = EDGE_LOOP ( 'NONE', ( #91 ) ) ;
#103 = APPLICATION_CONTEXT ( 'configuration controlled 3d designs of mechanical parts and assemblies' ) ;
#104 = PLANE ( 'NONE',  #124 ) ;
#105 = FACE_BOUND ( 'NONE', #102, .T. ) ;
#106 = ADVANCED_FACE ( 'NONE', ( #147 ), #19, .T. ) ;
#107 = DIRECTION ( 'NONE',  ( 0.0000000000000000000, -1.000000000000000000, 0.0000000000000000000 ) ) ;
#108 = FACE_OUTER_BOUND ( 'NONE', #121, .T. ) ;
#109 = CARTESIAN_POINT ( 'NONE',  ( 1.316288464743861212E-13, 1.499999999999995559, 37.69999999999999574 ) ) ;
#110 = CARTESIAN_POINT ( 'NONE',  ( 0.0000000000000000000, 0.04000000000000036859, 0.0000000000000000000 ) ) ;
#111 = CARTESIAN_POINT ( 'NONE',  ( -1.710332578358799306E-32, 5.999039130647486196E-34, -4.898587196589458219E-18 ) ) ;
#112 = CIRCLE ( 'NONE', #80, 1.500000000000000000 ) ;
#113 = DATE_TIME_ROLE ( 'classification_date' ) ;
#114 = CC_DESIGN_PERSON_AND_ORGANIZATION_ASSIGNMENT ( #152, #10, ( #5 ) ) ;
#115 = PERSON_AND_ORGANIZATION_ROLE ( 'creator' ) ;
#116 = APPROVAL_STATUS ( 'not_yet_approved' ) ;
#117 = CONICAL_SURFACE ( 'NONE', #56, 1.500000000000000000, 0.7853981633974453924 ) ;
#118 = ORIENTED_EDGE ( 'NONE', *, *, #177, .T. ) ;
#119 = CIRCLE ( 'NONE', #28, 1.499999999999999778 ) ;
#120 = EDGE_CURVE ( 'NONE', #96, #96, #112, .T. ) ;
#121 = EDGE_LOOP ( 'NONE', ( #55 ) ) ;
#122 = APPLICATION_CONTEXT ( 'configuration controlled 3d designs of mechanical parts and assemblies' ) ;
#123 = MANIFOLD_SOLID_BREP ( 'Corps-Déplacer/Copier1[1]', #100 ) ;
#124 = AXIS2_PLACEMENT_3D ( 'NONE', #174, #160, #54 ) ;
#125 = DIRECTION ( 'NONE',  ( -3.491481338843133355E-15, 1.224646799147353207E-16, -1.000000000000000000 ) ) ;
#126 = DIRECTION ( 'NONE',  ( 4.275831445896959482E-31, 1.000000000000000000, 1.224646799147353207E-16 ) ) ;
#127 = PERSON_AND_ORGANIZATION ( #89, #37 ) ;
#128 = MANIFOLD_SOLID_BREP ( 'Corps-Déplacer/Copier1[2]', #135 ) ;
#129 = PRODUCT_DEFINITION_SHAPE ( 'NONE', 'NONE',  #168 ) ;
#130 = CIRCLE ( 'NONE', #92, 1.200000000000000178 ) ;
#131 = PERSON_AND_ORGANIZATION_ROLE ( 'design_owner' ) ;
#132 = PRODUCT ( '326684', '326684', '', ( #72 ) ) ;
#133 = DIRECTION ( 'NONE',  ( -3.491481338843133355E-15, 1.224646799147353207E-16, -1.000000000000000000 ) ) ;
#134 = DIRECTION ( 'NONE',  ( -4.275831445896958607E-31, -1.000000000000000000, -1.224646799147353207E-16 ) ) ;
#135 = CLOSED_SHELL ( 'NONE', ( #82, #33, #106 ) ) ;
#136 = EDGE_CURVE ( 'NONE', #150, #150, #67, .T. ) ;
#137 = APPROVAL_ROLE ( '' ) ;
#138 = PERSON_AND_ORGANIZATION_ROLE ( 'classification_officer' ) ;
#139 = PERSON_AND_ORGANIZATION ( #89, #37 ) ;
#140 = FACE_OUTER_BOUND ( 'NONE', #57, .T. ) ;
#141 = FACE_OUTER_BOUND ( 'NONE', #70, .T. ) ;
#142 = CC_DESIGN_PERSON_AND_ORGANIZATION_ASSIGNMENT ( #79, #138, ( #164 ) ) ;
#143 = EDGE_LOOP ( 'NONE', ( #41 ) ) ;
#144 = CARTESIAN_POINT ( 'NONE',  ( -8.551662891793996529E-33, 2.999519565323743098E-34, -2.449293598294729110E-18 ) ) ;
#145 = EDGE_LOOP ( 'NONE', ( #118 ) ) ;
#146 = DIRECTION ( 'NONE',  ( 1.000000000000000000, 0.0000000000000000000, 0.0000000000000000000 ) ) ;
#147 = FACE_OUTER_BOUND ( 'NONE', #190, .T. ) ;
#148 = CC_DESIGN_APPROVAL ( #58, ( #5 ) ) ;
#149 = DIRECTION ( 'NONE',  ( -3.491481338843133355E-15, 1.224646799147353207E-16, -1.000000000000000000 ) ) ;
#150 = VERTEX_POINT ( 'NONE', #110 ) ;
#151 = COORDINATED_UNIVERSAL_TIME_OFFSET ( 1, 0, .AHEAD. ) ;
#152 = PERSON_AND_ORGANIZATION ( #89, #37 ) ;
#153 = CALENDAR_DATE ( 2021, 22, 11 ) ;
#154 = CALENDAR_DATE ( 2021, 22, 11 ) ;
#155 = LOCAL_TIME ( 11, 26, 16.00000000000000000, #51 ) ;
#156 = PLANE ( 'NONE',  #200 ) ;
#157 = DIRECTION ( 'NONE',  ( 3.491481338843133355E-15, -1.224646799147353207E-16, 1.000000000000000000 ) ) ;
#158 = CC_DESIGN_DATE_AND_TIME_ASSIGNMENT ( #97, #167, ( #168 ) ) ;
#159 = ORIENTED_EDGE ( 'NONE', *, *, #61, .F. ) ;
#160 = DIRECTION ( 'NONE',  ( 3.491481338843133355E-15, -1.224646799147353207E-16, 1.000000000000000000 ) ) ;
#161 = DIRECTION ( 'NONE',  ( -3.491481338843133355E-15, 1.224646799147353207E-16, -1.000000000000000000 ) ) ;
#162 = APPLICATION_PROTOCOL_DEFINITION ( 'international standard', 'config_control_design', 1994, #122 ) ;
#163 = CC_DESIGN_PERSON_AND_ORGANIZATION_ASSIGNMENT ( #127, #131, ( #132 ) ) ;
#164 = SECURITY_CLASSIFICATION ( '', '', #36 ) ;
#165 = CC_DESIGN_APPROVAL ( #21, ( #168 ) ) ;
#166 = COORDINATED_UNIVERSAL_TIME_OFFSET ( 1, 0, .AHEAD. ) ;
#167 = DATE_TIME_ROLE ( 'creation_date' ) ;
#168 = PRODUCT_DEFINITION ( 'UNKNOWN', '', #5, #65 ) ;
#169 = DATE_AND_TIME ( #83, #43 ) ;
#170 = AXIS2_PLACEMENT_3D ( 'NONE', #26, #161, #126 ) ;
#171 = FACE_BOUND ( 'NONE', #191, .T. ) ;
#172 = CYLINDRICAL_SURFACE ( 'NONE', #170, 1.500000000000000000 ) ;
#173 = AXIS2_PLACEMENT_3D ( 'NONE', #13, #187, #189 ) ;
#174 = CARTESIAN_POINT ( 'NONE',  ( 1.616740353756199947E-14, 1.124819836996392111E-32, 4.630528411450397286 ) ) ;
#175 =( LENGTH_UNIT ( ) NAMED_UNIT ( * ) SI_UNIT ( .MILLI., .METRE. ) );
#176 = CC_DESIGN_SECURITY_CLASSIFICATION ( #164, ( #5 ) ) ;
#177 = EDGE_CURVE ( 'NONE', #179, #179, #119, .T. ) ;
#178 = DIRECTION ( 'NONE',  ( 0.0000000000000000000, 1.000000000000000000, 0.0000000000000000000 ) ) ;
#179 = VERTEX_POINT ( 'NONE', #50 ) ;
#180 = CARTESIAN_POINT ( 'NONE',  ( 1.616740353756199947E-14, 1.499999999999999112, 4.630528411450397286 ) ) ;
#181 = LOCAL_TIME ( 11, 26, 16.00000000000000000, #38 ) ;
#182 = DATE_AND_TIME ( #62, #63 ) ;
#183 = DATE_AND_TIME ( #154, #181 ) ;
#184 = APPROVAL_ROLE ( '' ) ;
#185 = PERSON_AND_ORGANIZATION ( #89, #37 ) ;
#186 = APPROVAL_PERSON_ORGANIZATION ( #94, #21, #184 ) ;
#187 = DIRECTION ( 'NONE',  ( -3.491481338843133355E-15, 1.224646799147353207E-16, -1.000000000000000000 ) ) ;
#188 = CIRCLE ( 'NONE', #173, 1.499999999999999778 ) ;
#189 = DIRECTION ( 'NONE',  ( 0.0000000000000000000, 1.000000000000000000, 0.0000000000000000000 ) ) ;
#190 = EDGE_LOOP ( 'NONE', ( #159 ) ) ;
#191 = EDGE_LOOP ( 'NONE', ( #68 ) ) ;
#192 = CC_DESIGN_APPROVAL ( #73, ( #164 ) ) ;
#193 = DIRECTION ( 'NONE',  ( 0.0000000000000000000, 1.000000000000000000, 0.0000000000000000000 ) ) ;
#194 = CARTESIAN_POINT ( 'NONE',  ( 1.326762908760390423E-13, 8.998558695971078593E-33, 38.00000000000000000 ) ) ;
#195 = CC_DESIGN_PERSON_AND_ORGANIZATION_ASSIGNMENT ( #20, #201, ( #168 ) ) ;
#196 = FACE_OUTER_BOUND ( 'NONE', #40, .T. ) ;
#197 = DIRECTION ( 'NONE',  ( -3.491481338843133355E-15, 1.224646799147353207E-16, -1.000000000000000000 ) ) ;
#198 = DIRECTION ( 'NONE',  ( 0.0000000000000000000, 1.000000000000000000, 0.0000000000000000000 ) ) ;
#199 = CARTESIAN_POINT ( 'NONE',  ( 1.616740353756199947E-14, 1.124819836996392111E-32, 4.630528411450397286 ) ) ;
#200 = AXIS2_PLACEMENT_3D ( 'NONE', #144, #12, #64 ) ;
#201 = PERSON_AND_ORGANIZATION_ROLE ( 'creator' ) ;
#202 = ADVANCED_FACE ( 'NONE', ( #196 ), #15, .F. ) ;
#203 = DATE_AND_TIME ( #153, #155 ) ;
ENDSEC;
END-ISO-10303-21;
