ISO-10303-21;
HEADER;
FILE_DESCRIPTION (( 'STEP AP203' ),
    '1' );
FILE_NAME ('326683.step',
    '2021-11-22T10:26:15',
    ( '' ),
    ( '' ),
    'SwSTEP 2.0',
    'SolidWorks 2019',
    '' );
FILE_SCHEMA (( 'CONFIG_CONTROL_DESIGN' ));
ENDSEC;

DATA;
#1 = DATE_AND_TIME ( #66, #31 ) ;
#2 = ORIENTED_EDGE ( 'NONE', *, *, #59, .T. ) ;
#3 = CARTESIAN_POINT ( 'NONE',  ( 1.622277135789611948E-14, -5.690182214558140562E-16, 4.646386385462213831 ) ) ;
#4 = CC_DESIGN_DATE_AND_TIME_ASSIGNMENT ( #63, #164, ( #13 ) ) ;
#5 = DIRECTION ( 'NONE',  ( 0.0000000000000000000, -1.000000000000000000, 0.0000000000000000000 ) ) ;
#6 = DIRECTION ( 'NONE',  ( 0.0000000000000000000, 1.000000000000000000, 0.0000000000000000000 ) ) ;
#7 = EDGE_LOOP ( 'NONE', ( #23 ) ) ;
#8 = VERTEX_POINT ( 'NONE', #108 ) ;
#9 = EDGE_LOOP ( 'NONE', ( #182 ) ) ;
#10 = CARTESIAN_POINT ( 'NONE',  ( 1.622277135789611948E-14, 1.124819836996391837E-32, 4.646386385462213831 ) ) ;
#11 = APPROVAL_PERSON_ORGANIZATION ( #36, #177, #115 ) ;
#12 =( NAMED_UNIT ( * ) SI_UNIT ( $, .STERADIAN. ) SOLID_ANGLE_UNIT ( ) );
#13 = SECURITY_CLASSIFICATION ( '', '', #191 ) ;
#14 = PERSON ( 'UNSPECIFIED', 'UNSPECIFIED', 'UNSPECIFIED', ('UNSPECIFIED'), ('UNSPECIFIED'), ('UNSPECIFIED') ) ;
#15 = CLOSED_SHELL ( 'NONE', ( #157, #94, #35, #165 ) ) ;
#16 = CIRCLE ( 'NONE', #92, 0.03500000000000015599 ) ;
#17 = PERSON_AND_ORGANIZATION ( #14, #125 ) ;
#18 = MANIFOLD_SOLID_BREP ( 'Corps-Déplacer/Copier1[1]', #15 ) ;
#19 = SHAPE_DEFINITION_REPRESENTATION ( #131, #128 ) ;
#20 = AXIS2_PLACEMENT_3D ( 'NONE', #10, #134, #193 ) ;
#21 = ADVANCED_FACE ( 'NONE', ( #154, #85 ), #62, .T. ) ;
#22 = PLANE ( 'NONE',  #20 ) ;
#23 = ORIENTED_EDGE ( 'NONE', *, *, #197, .F. ) ;
#24 = CIRCLE ( 'NONE', #196, 1.500000000000000000 ) ;
#25 = DIRECTION ( 'NONE',  ( 3.491481338843133355E-15, -1.224646799147353207E-16, 1.000000000000000000 ) ) ;
#26 = EDGE_LOOP ( 'NONE', ( #88 ) ) ;
#27 = VERTEX_POINT ( 'NONE', #89 ) ;
#28 = EDGE_LOOP ( 'NONE', ( #74 ) ) ;
#29 = DIRECTION ( 'NONE',  ( 3.491481338843133355E-15, -1.224646799147353207E-16, 1.000000000000000000 ) ) ;
#30 = DIRECTION ( 'NONE',  ( -3.491481338843133355E-15, 1.224646799147353207E-16, -1.000000000000000000 ) ) ;
#31 = LOCAL_TIME ( 11, 26, 15.00000000000000000, #98 ) ;
#32 = DIRECTION ( 'NONE',  ( 1.000000000000000000, 0.0000000000000000000, 0.0000000000000000000 ) ) ;
#33 = CALENDAR_DATE ( 2021, 22, 11 ) ;
#34 = PERSON_AND_ORGANIZATION ( #14, #125 ) ;
#35 = ADVANCED_FACE ( 'NONE', ( #73, #172 ), #142, .T. ) ;
#36 = PERSON_AND_ORGANIZATION ( #14, #125 ) ;
#37 = PRODUCT_RELATED_PRODUCT_CATEGORY ( 'detail', '', ( #162 ) ) ;
#38 = UNCERTAINTY_MEASURE_WITH_UNIT (LENGTH_MEASURE( 1.000000000000000082E-05 ), #95, 'distance_accuracy_value', 'NONE');
#39 = COORDINATED_UNIVERSAL_TIME_OFFSET ( 1, 0, .AHEAD. ) ;
#40 = FACE_OUTER_BOUND ( 'NONE', #26, .T. ) ;
#41 = FACE_OUTER_BOUND ( 'NONE', #9, .T. ) ;
#42 = DIRECTION ( 'NONE',  ( 4.275831445896958607E-31, 1.000000000000000000, 1.224646799147352961E-16 ) ) ;
#43 = CC_DESIGN_SECURITY_CLASSIFICATION ( #13, ( #79 ) ) ;
#44 = DIRECTION ( 'NONE',  ( -3.491481338843133355E-15, 1.224646799147353207E-16, -1.000000000000000000 ) ) ;
#45 = APPROVAL_PERSON_ORGANIZATION ( #202, #159, #60 ) ;
#46 = PERSON_AND_ORGANIZATION_ROLE ( 'creator' ) ;
#47 = DATE_AND_TIME ( #33, #201 ) ;
#48 = DATE_AND_TIME ( #61, #122 ) ;
#49 = PERSON_AND_ORGANIZATION_ROLE ( 'design_owner' ) ;
#50 = CIRCLE ( 'NONE', #168, 1.200000000000000178 ) ;
#51 = CARTESIAN_POINT ( 'NONE',  ( 1.622277135789611948E-14, 1.124819836996391837E-32, 4.646386385462213831 ) ) ;
#52 = DIRECTION ( 'NONE',  ( -3.491481338843133355E-15, 1.224646799147353207E-16, -1.000000000000000000 ) ) ;
#53 = CARTESIAN_POINT ( 'NONE',  ( 0.0000000000000000000, 0.0000000000000000000, 0.0000000000000000000 ) ) ;
#54 = VERTEX_POINT ( 'NONE', #124 ) ;
#55 = EDGE_LOOP ( 'NONE', ( #138 ) ) ;
#56 = CYLINDRICAL_SURFACE ( 'NONE', #116, 1.499999999999999778 ) ;
#57 =( GEOMETRIC_REPRESENTATION_CONTEXT ( 3 ) GLOBAL_UNCERTAINTY_ASSIGNED_CONTEXT ( ( #38 ) ) GLOBAL_UNIT_ASSIGNED_CONTEXT ( ( #95, #187, #12 ) ) REPRESENTATION_CONTEXT ( 'NONE', 'WORKASPACE' ) );
#58 = DIRECTION ( 'NONE',  ( 0.0000000000000000000, 0.0000000000000000000, 1.000000000000000000 ) ) ;
#59 = EDGE_CURVE ( 'NONE', #27, #27, #178, .T. ) ;
#60 = APPROVAL_ROLE ( '' ) ;
#61 = CALENDAR_DATE ( 2021, 22, 11 ) ;
#62 = CONICAL_SURFACE ( 'NONE', #185, 1.499999999999999556, 0.3054326190990009349 ) ;
#63 = DATE_AND_TIME ( #101, #132 ) ;
#64 = APPROVAL_PERSON_ORGANIZATION ( #141, #110, #140 ) ;
#65 = ORIENTED_EDGE ( 'NONE', *, *, #151, .F. ) ;
#66 = CALENDAR_DATE ( 2021, 22, 11 ) ;
#67 = DIRECTION ( 'NONE',  ( 0.0000000000000000000, 1.000000000000000000, 0.0000000000000000000 ) ) ;
#68 = AXIS2_PLACEMENT_3D ( 'NONE', #106, #30, #150 ) ;
#69 = PRODUCT_DEFINITION ( 'UNKNOWN', '', #79, #113 ) ;
#70 = CC_DESIGN_APPROVAL ( #159, ( #79 ) ) ;
#71 = FACE_OUTER_BOUND ( 'NONE', #55, .T. ) ;
#72 = CARTESIAN_POINT ( 'NONE',  ( 1.326762908760390423E-13, 8.998558695971078593E-33, 38.00000000000000000 ) ) ;
#73 = FACE_BOUND ( 'NONE', #28, .T. ) ;
#74 = ORIENTED_EDGE ( 'NONE', *, *, #151, .T. ) ;
#75 = CARTESIAN_POINT ( 'NONE',  ( 5.914799457447379239E-33, 0.03500000000000015599, 1.694065894508600678E-18 ) ) ;
#76 = APPLICATION_PROTOCOL_DEFINITION ( 'international standard', 'config_control_design', 1994, #82 ) ;
#77 = APPLICATION_PROTOCOL_DEFINITION ( 'international standard', 'config_control_design', 1994, #111 ) ;
#78 = CC_DESIGN_PERSON_AND_ORGANIZATION_ASSIGNMENT ( #130, #199, ( #79 ) ) ;
#79 = PRODUCT_DEFINITION_FORMATION_WITH_SPECIFIED_SOURCE ( 'ANY', '', #162, .NOT_KNOWN. ) ;
#80 = CARTESIAN_POINT ( 'NONE',  ( 0.0000000000000000000, 0.0000000000000000000, 0.0000000000000000000 ) ) ;
#81 = PERSON_AND_ORGANIZATION ( #14, #125 ) ;
#82 = APPLICATION_CONTEXT ( 'configuration controlled 3d designs of mechanical parts and assemblies' ) ;
#83 = AXIS2_PLACEMENT_3D ( 'NONE', #3, #104, #118 ) ;
#84 = ORIENTED_EDGE ( 'NONE', *, *, #129, .T. ) ;
#85 = FACE_OUTER_BOUND ( 'NONE', #149, .T. ) ;
#86 = AXIS2_PLACEMENT_3D ( 'NONE', #80, #58, #32 ) ;
#87 = PLANE ( 'NONE',  #102 ) ;
#88 = ORIENTED_EDGE ( 'NONE', *, *, #91, .F. ) ;
#89 = CARTESIAN_POINT ( 'NONE',  ( 1.622277135789611948E-14, 1.499999999999998890, 4.646386385462213831 ) ) ;
#90 = CARTESIAN_POINT ( 'NONE',  ( -9.050610603192040448E-33, 3.174526864061868510E-34, -2.592197902507153789E-18 ) ) ;
#91 = EDGE_CURVE ( 'NONE', #8, #8, #200, .T. ) ;
#92 = AXIS2_PLACEMENT_3D ( 'NONE', #90, #181, #42 ) ;
#93 = APPROVAL_DATE_TIME ( #127, #110 ) ;
#94 = ADVANCED_FACE ( 'NONE', ( #184, #40 ), #56, .T. ) ;
#95 =( LENGTH_UNIT ( ) NAMED_UNIT ( * ) SI_UNIT ( .MILLI., .METRE. ) );
#96 = APPROVAL_DATE_TIME ( #48, #159 ) ;
#97 = CC_DESIGN_DATE_AND_TIME_ASSIGNMENT ( #47, #143, ( #69 ) ) ;
#98 = COORDINATED_UNIVERSAL_TIME_OFFSET ( 1, 0, .AHEAD. ) ;
#99 = AXIS2_PLACEMENT_3D ( 'NONE', #51, #29, #179 ) ;
#100 = ADVANCED_FACE ( 'NONE', ( #41 ), #171, .F. ) ;
#101 = CALENDAR_DATE ( 2021, 22, 11 ) ;
#102 = AXIS2_PLACEMENT_3D ( 'NONE', #72, #52, #135 ) ;
#103 = FACE_OUTER_BOUND ( 'NONE', #198, .T. ) ;
#104 = DIRECTION ( 'NONE',  ( -3.491481338843133355E-15, 1.224646799147353207E-16, -1.000000000000000000 ) ) ;
#105 = LOCAL_TIME ( 11, 26, 15.00000000000000000, #109 ) ;
#106 = CARTESIAN_POINT ( 'NONE',  ( 1.316288464743861212E-13, -4.616918432785521081E-15, 37.69999999999999574 ) ) ;
#107 = VERTEX_POINT ( 'NONE', #75 ) ;
#108 = CARTESIAN_POINT ( 'NONE',  ( 1.622277135789611948E-14, 1.499999999999998890, 4.646386385462213831 ) ) ;
#109 = COORDINATED_UNIVERSAL_TIME_OFFSET ( 1, 0, .AHEAD. ) ;
#110 = APPROVAL ( #144, 'UNSPECIFIED' ) ;
#111 = APPLICATION_CONTEXT ( 'configuration controlled 3d designs of mechanical parts and assemblies' ) ;
#112 = APPROVAL_STATUS ( 'not_yet_approved' ) ;
#113 = DESIGN_CONTEXT ( 'detailed design', #82, 'design' ) ;
#114 = AXIS2_PLACEMENT_3D ( 'NONE', #153, #119, #6 ) ;
#115 = APPROVAL_ROLE ( '' ) ;
#116 = AXIS2_PLACEMENT_3D ( 'NONE', #53, #180, #169 ) ;
#117 = CC_DESIGN_PERSON_AND_ORGANIZATION_ASSIGNMENT ( #17, #145, ( #13 ) ) ;
#118 = DIRECTION ( 'NONE',  ( 0.0000000000000000000, 1.000000000000000000, 0.0000000000000000000 ) ) ;
#119 = DIRECTION ( 'NONE',  ( -3.491481338843133355E-15, 1.224646799147353207E-16, -1.000000000000000000 ) ) ;
#120 = DIRECTION ( 'NONE',  ( 0.0000000000000000000, 1.000000000000000000, 0.0000000000000000000 ) ) ;
#121 = EDGE_LOOP ( 'NONE', ( #84 ) ) ;
#122 = LOCAL_TIME ( 11, 26, 15.00000000000000000, #188 ) ;
#123 = DIRECTION ( 'NONE',  ( 3.491481338843133355E-15, -1.224646799147353207E-16, 1.000000000000000000 ) ) ;
#124 = CARTESIAN_POINT ( 'NONE',  ( 1.326762908760390423E-13, 1.199999999999995515, 38.00000000000000000 ) ) ;
#125 = ORGANIZATION ( 'UNSPECIFIED', 'UNSPECIFIED', '' ) ;
#126 = MECHANICAL_CONTEXT ( 'NONE', #111, 'mechanical' ) ;
#127 = DATE_AND_TIME ( #203, #105 ) ;
#128 = ADVANCED_BREP_SHAPE_REPRESENTATION ( '326683', ( #18, #156, #86 ), #57 ) ;
#129 = EDGE_CURVE ( 'NONE', #195, #195, #24, .T. ) ;
#130 = PERSON_AND_ORGANIZATION ( #14, #125 ) ;
#131 = PRODUCT_DEFINITION_SHAPE ( 'NONE', 'NONE',  #69 ) ;
#132 = LOCAL_TIME ( 11, 26, 15.00000000000000000, #39 ) ;
#133 = EDGE_LOOP ( 'NONE', ( #170 ) ) ;
#134 = DIRECTION ( 'NONE',  ( 3.491481338843133355E-15, -1.224646799147353207E-16, 1.000000000000000000 ) ) ;
#135 = DIRECTION ( 'NONE',  ( 4.275831445896958607E-31, 1.000000000000000000, 1.224646799147353207E-16 ) ) ;
#136 = EDGE_LOOP ( 'NONE', ( #166 ) ) ;
#137 = FACE_OUTER_BOUND ( 'NONE', #133, .T. ) ;
#138 = ORIENTED_EDGE ( 'NONE', *, *, #91, .T. ) ;
#139 = CARTESIAN_POINT ( 'NONE',  ( 1.316288464743861212E-13, -4.616918432785521081E-15, 37.69999999999999574 ) ) ;
#140 = APPROVAL_ROLE ( '' ) ;
#141 = PERSON_AND_ORGANIZATION ( #14, #125 ) ;
#142 = CONICAL_SURFACE ( 'NONE', #68, 1.500000000000000000, 0.7853981633974453924 ) ;
#143 = DATE_TIME_ROLE ( 'creation_date' ) ;
#144 = APPROVAL_STATUS ( 'not_yet_approved' ) ;
#145 = PERSON_AND_ORGANIZATION_ROLE ( 'classification_officer' ) ;
#146 = CC_DESIGN_PERSON_AND_ORGANIZATION_ASSIGNMENT ( #158, #161, ( #79 ) ) ;
#147 = ADVANCED_FACE ( 'NONE', ( #137 ), #152, .T. ) ;
#148 = DIRECTION ( 'NONE',  ( -4.275831445896958607E-31, -1.000000000000000000, -1.224646799147353207E-16 ) ) ;
#149 = EDGE_LOOP ( 'NONE', ( #2 ) ) ;
#150 = DIRECTION ( 'NONE',  ( 0.0000000000000000000, 1.000000000000000000, 0.0000000000000000000 ) ) ;
#151 = EDGE_CURVE ( 'NONE', #54, #54, #50, .T. ) ;
#152 = PLANE ( 'NONE',  #99 ) ;
#153 = CARTESIAN_POINT ( 'NONE',  ( 1.622277135789611948E-14, -5.690182214558140562E-16, 4.646386385462213831 ) ) ;
#154 = FACE_BOUND ( 'NONE', #7, .T. ) ;
#155 = CARTESIAN_POINT ( 'NONE',  ( 1.316288464743861212E-13, 1.499999999999995559, 37.69999999999999574 ) ) ;
#156 = MANIFOLD_SOLID_BREP ( 'Corps-Déplacer/Copier1[2]', #175 ) ;
#157 = ADVANCED_FACE ( 'NONE', ( #71 ), #22, .F. ) ;
#158 = PERSON_AND_ORGANIZATION ( #14, #125 ) ;
#159 = APPROVAL ( #112, 'UNSPECIFIED' ) ;
#160 = CC_DESIGN_APPROVAL ( #110, ( #69 ) ) ;
#161 = PERSON_AND_ORGANIZATION_ROLE ( 'creator' ) ;
#162 = PRODUCT ( '326683', '326683', '', ( #126 ) ) ;
#163 = APPROVAL_DATE_TIME ( #1, #177 ) ;
#164 = DATE_TIME_ROLE ( 'classification_date' ) ;
#165 = ADVANCED_FACE ( 'NONE', ( #103 ), #87, .F. ) ;
#166 = ORIENTED_EDGE ( 'NONE', *, *, #129, .F. ) ;
#167 = CARTESIAN_POINT ( 'NONE',  ( -4.525305301596020224E-33, 1.587263432030934255E-34, -1.296098951253576895E-18 ) ) ;
#168 = AXIS2_PLACEMENT_3D ( 'NONE', #183, #194, #120 ) ;
#169 = DIRECTION ( 'NONE',  ( 4.275831445896959482E-31, 1.000000000000000000, 1.224646799147353207E-16 ) ) ;
#170 = ORIENTED_EDGE ( 'NONE', *, *, #59, .F. ) ;
#171 = PLANE ( 'NONE',  #189 ) ;
#172 = FACE_OUTER_BOUND ( 'NONE', #136, .T. ) ;
#173 = CC_DESIGN_PERSON_AND_ORGANIZATION_ASSIGNMENT ( #34, #49, ( #162 ) ) ;
#174 = COORDINATED_UNIVERSAL_TIME_OFFSET ( 1, 0, .AHEAD. ) ;
#175 = CLOSED_SHELL ( 'NONE', ( #100, #21, #147 ) ) ;
#176 = APPROVAL_STATUS ( 'not_yet_approved' ) ;
#177 = APPROVAL ( #176, 'UNSPECIFIED' ) ;
#178 = CIRCLE ( 'NONE', #114, 1.499999999999999556 ) ;
#179 = DIRECTION ( 'NONE',  ( -4.275831445896958607E-31, -1.000000000000000000, -1.224646799147353207E-16 ) ) ;
#180 = DIRECTION ( 'NONE',  ( -3.491481338843133355E-15, 1.224646799147353207E-16, -1.000000000000000000 ) ) ;
#181 = DIRECTION ( 'NONE',  ( -3.491481338843133355E-15, 1.224646799147353207E-16, -1.000000000000000000 ) ) ;
#182 = ORIENTED_EDGE ( 'NONE', *, *, #197, .T. ) ;
#183 = CARTESIAN_POINT ( 'NONE',  ( 1.326762908760390423E-13, -4.653657836759941941E-15, 38.00000000000000000 ) ) ;
#184 = FACE_OUTER_BOUND ( 'NONE', #121, .T. ) ;
#185 = AXIS2_PLACEMENT_3D ( 'NONE', #192, #123, #5 ) ;
#186 = CC_DESIGN_APPROVAL ( #177, ( #13 ) ) ;
#187 =( NAMED_UNIT ( * ) PLANE_ANGLE_UNIT ( ) SI_UNIT ( $, .RADIAN. ) );
#188 = COORDINATED_UNIVERSAL_TIME_OFFSET ( 1, 0, .AHEAD. ) ;
#189 = AXIS2_PLACEMENT_3D ( 'NONE', #167, #25, #148 ) ;
#190 = CC_DESIGN_PERSON_AND_ORGANIZATION_ASSIGNMENT ( #81, #46, ( #69 ) ) ;
#191 = SECURITY_CLASSIFICATION_LEVEL ( 'unclassified' ) ;
#192 = CARTESIAN_POINT ( 'NONE',  ( 1.622277135789611948E-14, -5.690182214558140562E-16, 4.646386385462213831 ) ) ;
#193 = DIRECTION ( 'NONE',  ( -4.275831445896958607E-31, -1.000000000000000000, -1.224646799147353207E-16 ) ) ;
#194 = DIRECTION ( 'NONE',  ( -3.491481338843133355E-15, 1.224646799147353207E-16, -1.000000000000000000 ) ) ;
#195 = VERTEX_POINT ( 'NONE', #155 ) ;
#196 = AXIS2_PLACEMENT_3D ( 'NONE', #139, #44, #67 ) ;
#197 = EDGE_CURVE ( 'NONE', #107, #107, #16, .T. ) ;
#198 = EDGE_LOOP ( 'NONE', ( #65 ) ) ;
#199 = PERSON_AND_ORGANIZATION_ROLE ( 'design_supplier' ) ;
#200 = CIRCLE ( 'NONE', #83, 1.499999999999999556 ) ;
#201 = LOCAL_TIME ( 11, 26, 15.00000000000000000, #174 ) ;
#202 = PERSON_AND_ORGANIZATION ( #14, #125 ) ;
#203 = CALENDAR_DATE ( 2021, 22, 11 ) ;
ENDSEC;
END-ISO-10303-21;
