ISO-10303-21;
HEADER;
FILE_DESCRIPTION (( 'STEP AP203' ),
    '1' );
FILE_NAME ('326682.step',
    '2021-11-22T10:26:15',
    ( '' ),
    ( '' ),
    'SwSTEP 2.0',
    'SolidWorks 2019',
    '' );
FILE_SCHEMA (( 'CONFIG_CONTROL_DESIGN' ));
ENDSEC;

DATA;
#1 = CARTESIAN_POINT ( 'NONE',  ( 1.633350699856435005E-14, -5.729023048787207018E-16, 4.678102333485847808 ) ) ;
#2 = ORIENTED_EDGE ( 'NONE', *, *, #3, .T. ) ;
#3 = EDGE_CURVE ( 'NONE', #43, #43, #26, .T. ) ;
#4 = FACE_OUTER_BOUND ( 'NONE', #157, .T. ) ;
#5 = APPROVAL_PERSON_ORGANIZATION ( #71, #75, #137 ) ;
#6 = DIRECTION ( 'NONE',  ( 0.0000000000000000000, 0.0000000000000000000, 1.000000000000000000 ) ) ;
#7 = PERSON_AND_ORGANIZATION_ROLE ( 'design_owner' ) ;
#8 = APPROVAL_DATE_TIME ( #68, #143 ) ;
#9 = LOCAL_TIME ( 11, 26, 15.00000000000000000, #196 ) ;
#10 = APPLICATION_PROTOCOL_DEFINITION ( 'international standard', 'config_control_design', 1994, #201 ) ;
#11 = APPROVAL_STATUS ( 'not_yet_approved' ) ;
#12 = APPROVAL_STATUS ( 'not_yet_approved' ) ;
#13 = PERSON_AND_ORGANIZATION_ROLE ( 'design_supplier' ) ;
#14 = ORIENTED_EDGE ( 'NONE', *, *, #160, .F. ) ;
#15 = PERSON ( 'UNSPECIFIED', 'UNSPECIFIED', 'UNSPECIFIED', ('UNSPECIFIED'), ('UNSPECIFIED'), ('UNSPECIFIED') ) ;
#16 = EDGE_LOOP ( 'NONE', ( #187 ) ) ;
#17 = DIRECTION ( 'NONE',  ( -3.491481338843133355E-15, 1.224646799147353207E-16, -1.000000000000000000 ) ) ;
#18 = DIRECTION ( 'NONE',  ( -3.491481338843133355E-15, 1.224646799147353207E-16, -1.000000000000000000 ) ) ;
#19 = DIRECTION ( 'NONE',  ( 3.491481338843133355E-15, -1.224646799147353207E-16, 1.000000000000000000 ) ) ;
#20 = ORIENTED_EDGE ( 'NONE', *, *, #170, .F. ) ;
#21 = AXIS2_PLACEMENT_3D ( 'NONE', #85, #18, #114 ) ;
#22 = CARTESIAN_POINT ( 'NONE',  ( -2.070179810106582768E-32, 0.02500000000000017139, -5.929230630780102373E-18 ) ) ;
#23 = DIRECTION ( 'NONE',  ( -3.491481338843133355E-15, 1.224646799147353207E-16, -1.000000000000000000 ) ) ;
#24 = SHAPE_DEFINITION_REPRESENTATION ( #159, #125 ) ;
#25 = PERSON_AND_ORGANIZATION ( #15, #178 ) ;
#26 = CIRCLE ( 'NONE', #77, 1.499999999999999778 ) ;
#27 = PERSON_AND_ORGANIZATION ( #15, #178 ) ;
#28 = PERSON_AND_ORGANIZATION ( #15, #178 ) ;
#29 = CIRCLE ( 'NONE', #81, 0.02500000000000017139 ) ;
#30 = ADVANCED_FACE ( 'NONE', ( #115 ), #189, .F. ) ;
#31 = ORIENTED_EDGE ( 'NONE', *, *, #197, .F. ) ;
#32 = APPLICATION_CONTEXT ( 'configuration controlled 3d designs of mechanical parts and assemblies' ) ;
#33 = DIRECTION ( 'NONE',  ( 0.0000000000000000000, -1.000000000000000000, 0.0000000000000000000 ) ) ;
#34 = CARTESIAN_POINT ( 'NONE',  ( 1.633350699856435320E-14, 1.124819836996392111E-32, 4.678102333485848696 ) ) ;
#35 = DESIGN_CONTEXT ( 'detailed design', #32, 'design' ) ;
#36 = ORIENTED_EDGE ( 'NONE', *, *, #170, .T. ) ;
#37 = DIRECTION ( 'NONE',  ( -3.491481338843133355E-15, 1.224646799147353207E-16, -1.000000000000000000 ) ) ;
#38 = CC_DESIGN_SECURITY_CLASSIFICATION ( #104, ( #202 ) ) ;
#39 = DIRECTION ( 'NONE',  ( -3.491481338843133355E-15, 1.224646799147353207E-16, -1.000000000000000000 ) ) ;
#40 = CC_DESIGN_PERSON_AND_ORGANIZATION_ASSIGNMENT ( #44, #182, ( #104 ) ) ;
#41 = DATE_TIME_ROLE ( 'creation_date' ) ;
#42 = CIRCLE ( 'NONE', #90, 1.499999999999999778 ) ;
#43 = VERTEX_POINT ( 'NONE', #102 ) ;
#44 = PERSON_AND_ORGANIZATION ( #15, #178 ) ;
#45 = APPROVAL ( #12, 'UNSPECIFIED' ) ;
#46 = DIRECTION ( 'NONE',  ( 3.491481338843133355E-15, -1.224646799147353207E-16, 1.000000000000000000 ) ) ;
#47 = ORIENTED_EDGE ( 'NONE', *, *, #197, .T. ) ;
#48 = CARTESIAN_POINT ( 'NONE',  ( -1.569568835790414850E-32, 5.505306385022982052E-34, -4.495423814324253173E-18 ) ) ;
#49 = DIRECTION ( 'NONE',  ( 0.0000000000000000000, 1.000000000000000000, 0.0000000000000000000 ) ) ;
#50 = DIRECTION ( 'NONE',  ( 0.0000000000000000000, 1.000000000000000000, 0.0000000000000000000 ) ) ;
#51 = ADVANCED_FACE ( 'NONE', ( #4, #144 ), #98, .T. ) ;
#52 =( NAMED_UNIT ( * ) SI_UNIT ( $, .STERADIAN. ) SOLID_ANGLE_UNIT ( ) );
#53 = VERTEX_POINT ( 'NONE', #120 ) ;
#54 = COORDINATED_UNIVERSAL_TIME_OFFSET ( 1, 0, .AHEAD. ) ;
#55 = DATE_AND_TIME ( #119, #140 ) ;
#56 = CALENDAR_DATE ( 2021, 22, 11 ) ;
#57 =( GEOMETRIC_REPRESENTATION_CONTEXT ( 3 ) GLOBAL_UNCERTAINTY_ASSIGNED_CONTEXT ( ( #79 ) ) GLOBAL_UNIT_ASSIGNED_CONTEXT ( ( #88, #117, #52 ) ) REPRESENTATION_CONTEXT ( 'NONE', 'WORKASPACE' ) );
#58 = DATE_TIME_ROLE ( 'classification_date' ) ;
#59 = PERSON_AND_ORGANIZATION_ROLE ( 'creator' ) ;
#60 = DATE_AND_TIME ( #105, #127 ) ;
#61 = DIRECTION ( 'NONE',  ( 0.0000000000000000000, 1.000000000000000000, 0.0000000000000000000 ) ) ;
#62 = AXIS2_PLACEMENT_3D ( 'NONE', #180, #6, #165 ) ;
#63 = CARTESIAN_POINT ( 'NONE',  ( 1.633350699856435005E-14, -5.729023048787207018E-16, 4.678102333485847808 ) ) ;
#64 = CARTESIAN_POINT ( 'NONE',  ( 1.633350699856435005E-14, -5.729023048787207018E-16, 4.678102333485847808 ) ) ;
#65 = APPROVAL_PERSON_ORGANIZATION ( #25, #143, #150 ) ;
#66 = DIRECTION ( 'NONE',  ( 0.0000000000000000000, 1.000000000000000000, 0.0000000000000000000 ) ) ;
#67 = PERSON_AND_ORGANIZATION ( #15, #178 ) ;
#68 = DATE_AND_TIME ( #195, #93 ) ;
#69 = CALENDAR_DATE ( 2021, 22, 11 ) ;
#70 = DIRECTION ( 'NONE',  ( 0.0000000000000000000, 1.000000000000000000, 0.0000000000000000000 ) ) ;
#71 = PERSON_AND_ORGANIZATION ( #15, #178 ) ;
#72 = PERSON_AND_ORGANIZATION ( #15, #178 ) ;
#73 = ADVANCED_FACE ( 'NONE', ( #128, #99 ), #179, .T. ) ;
#74 = EDGE_LOOP ( 'NONE', ( #175 ) ) ;
#75 = APPROVAL ( #11, 'UNSPECIFIED' ) ;
#76 = AXIS2_PLACEMENT_3D ( 'NONE', #48, #46, #174 ) ;
#77 = AXIS2_PLACEMENT_3D ( 'NONE', #63, #130, #49 ) ;
#78 = MANIFOLD_SOLID_BREP ( 'Corps-Déplacer/Copier1[2]', #142 ) ;
#79 = UNCERTAINTY_MEASURE_WITH_UNIT (LENGTH_MEASURE( 1.000000000000000082E-05 ), #88, 'distance_accuracy_value', 'NONE');
#80 = EDGE_LOOP ( 'NONE', ( #141 ) ) ;
#81 = AXIS2_PLACEMENT_3D ( 'NONE', #191, #23, #152 ) ;
#82 = CONICAL_SURFACE ( 'NONE', #147, 1.499999999999999778, 0.3054326190990009349 ) ;
#83 = EDGE_LOOP ( 'NONE', ( #20 ) ) ;
#84 = CARTESIAN_POINT ( 'NONE',  ( 1.316288464743861212E-13, -4.616918432785521081E-15, 37.69999999999999574 ) ) ;
#85 = CARTESIAN_POINT ( 'NONE',  ( 0.0000000000000000000, 0.0000000000000000000, 0.0000000000000000000 ) ) ;
#86 = CC_DESIGN_APPROVAL ( #75, ( #202 ) ) ;
#87 = CARTESIAN_POINT ( 'NONE',  ( 1.633350699856435320E-14, 1.124819836996392111E-32, 4.678102333485848696 ) ) ;
#88 =( LENGTH_UNIT ( ) NAMED_UNIT ( * ) SI_UNIT ( .MILLI., .METRE. ) );
#89 = ADVANCED_FACE ( 'NONE', ( #112, #173 ), #82, .T. ) ;
#90 = AXIS2_PLACEMENT_3D ( 'NONE', #1, #129, #50 ) ;
#91 = ADVANCED_FACE ( 'NONE', ( #185 ), #162, .T. ) ;
#92 = EDGE_LOOP ( 'NONE', ( #14 ) ) ;
#93 = LOCAL_TIME ( 11, 26, 15.00000000000000000, #167 ) ;
#94 = EDGE_LOOP ( 'NONE', ( #31 ) ) ;
#95 = PRODUCT_RELATED_PRODUCT_CATEGORY ( 'detail', '', ( #155 ) ) ;
#96 = PLANE ( 'NONE',  #166 ) ;
#97 = CC_DESIGN_APPROVAL ( #143, ( #149 ) ) ;
#98 = CYLINDRICAL_SURFACE ( 'NONE', #21, 1.500000000000000000 ) ;
#99 = FACE_OUTER_BOUND ( 'NONE', #94, .T. ) ;
#100 = DIRECTION ( 'NONE',  ( -4.275831445896958607E-31, -1.000000000000000000, -1.224646799147353207E-16 ) ) ;
#101 = MECHANICAL_CONTEXT ( 'NONE', #201, 'mechanical' ) ;
#102 = CARTESIAN_POINT ( 'NONE',  ( 1.633350699856435005E-14, 1.499999999999999112, 4.678102333485847808 ) ) ;
#103 = SECURITY_CLASSIFICATION_LEVEL ( 'unclassified' ) ;
#104 = SECURITY_CLASSIFICATION ( '', '', #103 ) ;
#105 = CALENDAR_DATE ( 2021, 22, 11 ) ;
#106 = DATE_AND_TIME ( #69, #108 ) ;
#107 = ORIENTED_EDGE ( 'NONE', *, *, #199, .T. ) ;
#108 = LOCAL_TIME ( 11, 26, 15.00000000000000000, #138 ) ;
#109 = DIRECTION ( 'NONE',  ( 3.491481338843133355E-15, -1.224646799147353207E-16, 1.000000000000000000 ) ) ;
#110 = CC_DESIGN_PERSON_AND_ORGANIZATION_ASSIGNMENT ( #198, #59, ( #202 ) ) ;
#111 = DIRECTION ( 'NONE',  ( -3.491481338843133355E-15, 1.224646799147353207E-16, -1.000000000000000000 ) ) ;
#112 = FACE_BOUND ( 'NONE', #80, .T. ) ;
#113 = CC_DESIGN_PERSON_AND_ORGANIZATION_ASSIGNMENT ( #67, #7, ( #155 ) ) ;
#114 = DIRECTION ( 'NONE',  ( 4.275831445896959482E-31, 1.000000000000000000, 1.224646799147353207E-16 ) ) ;
#115 = FACE_OUTER_BOUND ( 'NONE', #163, .T. ) ;
#116 = VERTEX_POINT ( 'NONE', #22 ) ;
#117 =( NAMED_UNIT ( * ) PLANE_ANGLE_UNIT ( ) SI_UNIT ( $, .RADIAN. ) );
#118 = ADVANCED_FACE ( 'NONE', ( #131 ), #96, .F. ) ;
#119 = CALENDAR_DATE ( 2021, 22, 11 ) ;
#120 = CARTESIAN_POINT ( 'NONE',  ( 1.316288464743861212E-13, 1.499999999999995559, 37.69999999999999574 ) ) ;
#121 = CC_DESIGN_DATE_AND_TIME_ASSIGNMENT ( #55, #41, ( #149 ) ) ;
#122 = CARTESIAN_POINT ( 'NONE',  ( 1.633350699856435005E-14, 1.499999999999999112, 4.678102333485847808 ) ) ;
#123 = CIRCLE ( 'NONE', #172, 1.500000000000000000 ) ;
#124 = APPROVAL_DATE_TIME ( #60, #45 ) ;
#125 = ADVANCED_BREP_SHAPE_REPRESENTATION ( '326682', ( #153, #78, #62 ), #57 ) ;
#126 = PLANE ( 'NONE',  #76 ) ;
#127 = LOCAL_TIME ( 11, 26, 15.00000000000000000, #192 ) ;
#128 = FACE_BOUND ( 'NONE', #203, .T. ) ;
#129 = DIRECTION ( 'NONE',  ( -3.491481338843133355E-15, 1.224646799147353207E-16, -1.000000000000000000 ) ) ;
#130 = DIRECTION ( 'NONE',  ( -3.491481338843133355E-15, 1.224646799147353207E-16, -1.000000000000000000 ) ) ;
#131 = FACE_OUTER_BOUND ( 'NONE', #83, .T. ) ;
#132 = APPLICATION_PROTOCOL_DEFINITION ( 'international standard', 'config_control_design', 1994, #32 ) ;
#133 = CC_DESIGN_DATE_AND_TIME_ASSIGNMENT ( #106, #58, ( #104 ) ) ;
#134 = VERTEX_POINT ( 'NONE', #122 ) ;
#135 = AXIS2_PLACEMENT_3D ( 'NONE', #87, #109, #100 ) ;
#136 = APPROVAL_STATUS ( 'not_yet_approved' ) ;
#137 = APPROVAL_ROLE ( '' ) ;
#138 = COORDINATED_UNIVERSAL_TIME_OFFSET ( 1, 0, .AHEAD. ) ;
#139 = DATE_AND_TIME ( #56, #9 ) ;
#140 = LOCAL_TIME ( 11, 26, 15.00000000000000000, #54 ) ;
#141 = ORIENTED_EDGE ( 'NONE', *, *, #199, .F. ) ;
#142 = CLOSED_SHELL ( 'NONE', ( #184, #89, #91 ) ) ;
#143 = APPROVAL ( #136, 'UNSPECIFIED' ) ;
#144 = FACE_OUTER_BOUND ( 'NONE', #74, .T. ) ;
#145 = FACE_OUTER_BOUND ( 'NONE', #177, .T. ) ;
#146 = DIRECTION ( 'NONE',  ( 4.275831445896958607E-31, 1.000000000000000000, 1.224646799147353207E-16 ) ) ;
#147 = AXIS2_PLACEMENT_3D ( 'NONE', #64, #19, #33 ) ;
#148 = DIRECTION ( 'NONE',  ( 3.491481338843133355E-15, -1.224646799147353207E-16, 1.000000000000000000 ) ) ;
#149 = PRODUCT_DEFINITION ( 'UNKNOWN', '', #202, #35 ) ;
#150 = APPROVAL_ROLE ( '' ) ;
#151 = APPROVAL_PERSON_ORGANIZATION ( #28, #45, #169 ) ;
#152 = DIRECTION ( 'NONE',  ( 4.275831445896958607E-31, 1.000000000000000000, 1.224646799147353454E-16 ) ) ;
#153 = MANIFOLD_SOLID_BREP ( 'Corps-Déplacer/Copier1[1]', #171 ) ;
#154 = CARTESIAN_POINT ( 'NONE',  ( 1.316288464743861212E-13, -4.616918432785521081E-15, 37.69999999999999574 ) ) ;
#155 = PRODUCT ( '326682', '326682', '', ( #101 ) ) ;
#156 = APPROVAL_DATE_TIME ( #139, #75 ) ;
#157 = EDGE_LOOP ( 'NONE', ( #47 ) ) ;
#158 = CIRCLE ( 'NONE', #183, 1.200000000000000178 ) ;
#159 = PRODUCT_DEFINITION_SHAPE ( 'NONE', 'NONE',  #149 ) ;
#160 = EDGE_CURVE ( 'NONE', #134, #134, #42, .T. ) ;
#161 = DIRECTION ( 'NONE',  ( -4.275831445896958607E-31, -1.000000000000000000, -1.224646799147353207E-16 ) ) ;
#162 = PLANE ( 'NONE',  #186 ) ;
#163 = EDGE_LOOP ( 'NONE', ( #2 ) ) ;
#164 = CC_DESIGN_PERSON_AND_ORGANIZATION_ASSIGNMENT ( #72, #13, ( #202 ) ) ;
#165 = DIRECTION ( 'NONE',  ( 1.000000000000000000, 0.0000000000000000000, 0.0000000000000000000 ) ) ;
#166 = AXIS2_PLACEMENT_3D ( 'NONE', #190, #17, #146 ) ;
#167 = COORDINATED_UNIVERSAL_TIME_OFFSET ( 1, 0, .AHEAD. ) ;
#168 = VERTEX_POINT ( 'NONE', #181 ) ;
#169 = APPROVAL_ROLE ( '' ) ;
#170 = EDGE_CURVE ( 'NONE', #168, #168, #158, .T. ) ;
#171 = CLOSED_SHELL ( 'NONE', ( #30, #51, #73, #118 ) ) ;
#172 = AXIS2_PLACEMENT_3D ( 'NONE', #154, #39, #70 ) ;
#173 = FACE_OUTER_BOUND ( 'NONE', #16, .T. ) ;
#174 = DIRECTION ( 'NONE',  ( -4.275831445896958607E-31, -1.000000000000000000, -1.224646799147353207E-16 ) ) ;
#175 = ORIENTED_EDGE ( 'NONE', *, *, #3, .F. ) ;
#176 = CC_DESIGN_PERSON_AND_ORGANIZATION_ASSIGNMENT ( #27, #194, ( #149 ) ) ;
#177 = EDGE_LOOP ( 'NONE', ( #107 ) ) ;
#178 = ORGANIZATION ( 'UNSPECIFIED', 'UNSPECIFIED', '' ) ;
#179 = CONICAL_SURFACE ( 'NONE', #193, 1.500000000000000000, 0.7853981633974453924 ) ;
#180 = CARTESIAN_POINT ( 'NONE',  ( 0.0000000000000000000, 0.0000000000000000000, 0.0000000000000000000 ) ) ;
#181 = CARTESIAN_POINT ( 'NONE',  ( 1.326762908760390423E-13, 1.199999999999995515, 38.00000000000000000 ) ) ;
#182 = PERSON_AND_ORGANIZATION_ROLE ( 'classification_officer' ) ;
#183 = AXIS2_PLACEMENT_3D ( 'NONE', #188, #37, #61 ) ;
#184 = ADVANCED_FACE ( 'NONE', ( #145 ), #126, .F. ) ;
#185 = FACE_OUTER_BOUND ( 'NONE', #92, .T. ) ;
#186 = AXIS2_PLACEMENT_3D ( 'NONE', #34, #148, #161 ) ;
#187 = ORIENTED_EDGE ( 'NONE', *, *, #160, .T. ) ;
#188 = CARTESIAN_POINT ( 'NONE',  ( 1.326762908760390423E-13, -4.653657836759941941E-15, 38.00000000000000000 ) ) ;
#189 = PLANE ( 'NONE',  #135 ) ;
#190 = CARTESIAN_POINT ( 'NONE',  ( 1.326762908760390423E-13, 8.998558695971078593E-33, 38.00000000000000000 ) ) ;
#191 = CARTESIAN_POINT ( 'NONE',  ( -3.139137671580829700E-32, 1.101061277004596410E-33, -8.990847628648506346E-18 ) ) ;
#192 = COORDINATED_UNIVERSAL_TIME_OFFSET ( 1, 0, .AHEAD. ) ;
#193 = AXIS2_PLACEMENT_3D ( 'NONE', #84, #111, #66 ) ;
#194 = PERSON_AND_ORGANIZATION_ROLE ( 'creator' ) ;
#195 = CALENDAR_DATE ( 2021, 22, 11 ) ;
#196 = COORDINATED_UNIVERSAL_TIME_OFFSET ( 1, 0, .AHEAD. ) ;
#197 = EDGE_CURVE ( 'NONE', #53, #53, #123, .T. ) ;
#198 = PERSON_AND_ORGANIZATION ( #15, #178 ) ;
#199 = EDGE_CURVE ( 'NONE', #116, #116, #29, .T. ) ;
#200 = CC_DESIGN_APPROVAL ( #45, ( #104 ) ) ;
#201 = APPLICATION_CONTEXT ( 'configuration controlled 3d designs of mechanical parts and assemblies' ) ;
#202 = PRODUCT_DEFINITION_FORMATION_WITH_SPECIFIED_SOURCE ( 'ANY', '', #155, .NOT_KNOWN. ) ;
#203 = EDGE_LOOP ( 'NONE', ( #36 ) ) ;
ENDSEC;
END-ISO-10303-21;
