ISO-10303-21;
HEADER;
FILE_DESCRIPTION (( 'STEP AP203' ),
    '1' );
FILE_NAME ('326681.step',
    '2021-11-22T10:21:38',
    ( '' ),
    ( '' ),
    'SwSTEP 2.0',
    'SolidWorks 2019',
    '' );
FILE_SCHEMA (( 'CONFIG_CONTROL_DESIGN' ));
ENDSEC;

DATA;
#1 = DIRECTION ( 'NONE',  ( -3.491481338843133355E-15, 1.224646799147353207E-16, -1.000000000000000000 ) ) ;
#2 = AXIS2_PLACEMENT_3D ( 'NONE', #155, #1, #173 ) ;
#3 = CARTESIAN_POINT ( 'NONE',  ( -4.204769007218878445E-33, 1.474834434472670202E-34, -1.204293707785385343E-18 ) ) ;
#4 = ORIENTED_EDGE ( 'NONE', *, *, #197, .T. ) ;
#5 = FACE_OUTER_BOUND ( 'NONE', #194, .T. ) ;
#6 = PERSON_AND_ORGANIZATION_ROLE ( 'design_owner' ) ;
#7 = EDGE_LOOP ( 'NONE', ( #4 ) ) ;
#8 = CALENDAR_DATE ( 2021, 22, 11 ) ;
#9 = EDGE_LOOP ( 'NONE', ( #144 ) ) ;
#10 = LOCAL_TIME ( 11, 21, 38.00000000000000000, #145 ) ;
#11 = PERSON_AND_ORGANIZATION_ROLE ( 'classification_officer' ) ;
#12 = APPROVAL_DATE_TIME ( #44, #83 ) ;
#13 = DIRECTION ( 'NONE',  ( -3.491481338843133355E-15, 1.224646799147353207E-16, -1.000000000000000000 ) ) ;
#14 = DIRECTION ( 'NONE',  ( 0.0000000000000000000, 1.000000000000000000, 0.0000000000000000000 ) ) ;
#15 = DIRECTION ( 'NONE',  ( 3.491481338843133355E-15, -1.224646799147353207E-16, 1.000000000000000000 ) ) ;
#16 = DIRECTION ( 'NONE',  ( 0.0000000000000000000, 1.000000000000000000, 0.0000000000000000000 ) ) ;
#17 = CARTESIAN_POINT ( 'NONE',  ( 8.617577878390877864E-15, -7.135994344001609183E-16, 2.468172400785686005 ) ) ;
#18 = EDGE_CURVE ( 'NONE', #123, #123, #101, .T. ) ;
#19 = AXIS2_PLACEMENT_3D ( 'NONE', #91, #48, #50 ) ;
#20 =( NAMED_UNIT ( * ) PLANE_ANGLE_UNIT ( ) SI_UNIT ( $, .RADIAN. ) );
#21 = AXIS2_PLACEMENT_3D ( 'NONE', #17, #15, #189 ) ;
#22 = APPLICATION_CONTEXT ( 'configuration controlled 3d designs of mechanical parts and assemblies' ) ;
#23 = ORIENTED_EDGE ( 'NONE', *, *, #69, .F. ) ;
#24 = APPROVAL_STATUS ( 'not_yet_approved' ) ;
#25 = UNCERTAINTY_MEASURE_WITH_UNIT (LENGTH_MEASURE( 1.000000000000000082E-05 ), #114, 'distance_accuracy_value', 'NONE');
#26 = ADVANCED_FACE ( 'NONE', ( #5 ), #78, .F. ) ;
#27 = ORIENTED_EDGE ( 'NONE', *, *, #121, .T. ) ;
#28 = FACE_OUTER_BOUND ( 'NONE', #33, .T. ) ;
#29 = CONICAL_SURFACE ( 'NONE', #110, 1.500000000000000000, 0.5235987755982924874 ) ;
#30 = CARTESIAN_POINT ( 'NONE',  ( 1.316288464743861212E-13, -4.616918432785521081E-15, 37.69999999999999574 ) ) ;
#31 = CARTESIAN_POINT ( 'NONE',  ( 8.617577878390877864E-15, -3.022639430366028945E-16, 2.468172400785686005 ) ) ;
#32 = LOCAL_TIME ( 11, 21, 38.00000000000000000, #70 ) ;
#33 = EDGE_LOOP ( 'NONE', ( #116 ) ) ;
#34 = APPLICATION_CONTEXT ( 'configuration controlled 3d designs of mechanical parts and assemblies' ) ;
#35 = DIRECTION ( 'NONE',  ( 0.0000000000000000000, 0.0000000000000000000, 1.000000000000000000 ) ) ;
#36 = MANIFOLD_SOLID_BREP ( 'Corps-Déplacer/Copier1[1]', #196 ) ;
#37 = DIRECTION ( 'NONE',  ( 1.000000000000000000, 0.0000000000000000000, 0.0000000000000000000 ) ) ;
#38 = VERTEX_POINT ( 'NONE', #198 ) ;
#39 = CC_DESIGN_APPROVAL ( #159, ( #176 ) ) ;
#40 = APPLICATION_PROTOCOL_DEFINITION ( 'international standard', 'config_control_design', 1994, #34 ) ;
#41 = APPROVAL_DATE_TIME ( #203, #141 ) ;
#42 = APPROVAL_ROLE ( '' ) ;
#43 = AXIS2_PLACEMENT_3D ( 'NONE', #53, #35, #37 ) ;
#44 = DATE_AND_TIME ( #167, #92 ) ;
#45 = PERSON_AND_ORGANIZATION_ROLE ( 'design_supplier' ) ;
#46 = DIRECTION ( 'NONE',  ( 0.0000000000000000000, 1.000000000000000000, 0.0000000000000000000 ) ) ;
#47 = SHAPE_DEFINITION_REPRESENTATION ( #161, #178 ) ;
#48 = DIRECTION ( 'NONE',  ( 3.491481338843133355E-15, -1.224646799147353207E-16, 1.000000000000000000 ) ) ;
#49 = CARTESIAN_POINT ( 'NONE',  ( 1.326762908760390423E-13, 1.199999999999995515, 38.00000000000000000 ) ) ;
#50 = DIRECTION ( 'NONE',  ( -4.275831445896958607E-31, -1.000000000000000000, -1.224646799147353207E-16 ) ) ;
#51 = DIRECTION ( 'NONE',  ( 0.0000000000000000000, -1.000000000000000000, 0.0000000000000000000 ) ) ;
#52 = ORGANIZATION ( 'UNSPECIFIED', 'UNSPECIFIED', '' ) ;
#53 = CARTESIAN_POINT ( 'NONE',  ( 0.0000000000000000000, 0.0000000000000000000, 0.0000000000000000000 ) ) ;
#54 = CC_DESIGN_DATE_AND_TIME_ASSIGNMENT ( #71, #60, ( #127 ) ) ;
#55 = AXIS2_PLACEMENT_3D ( 'NONE', #3, #153, #156 ) ;
#56 = CIRCLE ( 'NONE', #169, 0.07500000000000019151 ) ;
#57 = ORIENTED_EDGE ( 'NONE', *, *, #197, .F. ) ;
#58 = ORIENTED_EDGE ( 'NONE', *, *, #59, .T. ) ;
#59 = EDGE_CURVE ( 'NONE', #171, #171, #97, .T. ) ;
#60 = DATE_TIME_ROLE ( 'creation_date' ) ;
#61 = DIRECTION ( 'NONE',  ( -3.491481338843133355E-15, 1.224646799147353207E-16, -1.000000000000000000 ) ) ;
#62 = PLANE ( 'NONE',  #2 ) ;
#63 = CYLINDRICAL_SURFACE ( 'NONE', #85, 1.500000000000000000 ) ;
#64 = ADVANCED_FACE ( 'NONE', ( #65, #108 ), #72, .T. ) ;
#65 = FACE_BOUND ( 'NONE', #151, .T. ) ;
#66 = CC_DESIGN_APPROVAL ( #83, ( #127 ) ) ;
#67 = CARTESIAN_POINT ( 'NONE',  ( 2.365919782978951696E-32, 0.07500000000000019151, 6.776263578034402713E-18 ) ) ;
#68 = LOCAL_TIME ( 11, 21, 38.00000000000000000, #186 ) ;
#69 = EDGE_CURVE ( 'NONE', #38, #38, #76, .T. ) ;
#70 = COORDINATED_UNIVERSAL_TIME_OFFSET ( 1, 0, .AHEAD. ) ;
#71 = DATE_AND_TIME ( #8, #10 ) ;
#72 = CONICAL_SURFACE ( 'NONE', #81, 1.500000000000000000, 0.7853981633974453924 ) ;
#73 = PERSON_AND_ORGANIZATION ( #79, #52 ) ;
#74 = CARTESIAN_POINT ( 'NONE',  ( 1.316288464743861212E-13, -4.616918432785521081E-15, 37.69999999999999574 ) ) ;
#75 = DIRECTION ( 'NONE',  ( -3.491481338843133355E-15, 1.224646799147353207E-16, -1.000000000000000000 ) ) ;
#76 = CIRCLE ( 'NONE', #152, 1.500000000000000000 ) ;
#77 = FACE_OUTER_BOUND ( 'NONE', #7, .T. ) ;
#78 = PLANE ( 'NONE',  #19 ) ;
#79 = PERSON ( 'UNSPECIFIED', 'UNSPECIFIED', 'UNSPECIFIED', ('UNSPECIFIED'), ('UNSPECIFIED'), ('UNSPECIFIED') ) ;
#80 = MECHANICAL_CONTEXT ( 'NONE', #22, 'mechanical' ) ;
#81 = AXIS2_PLACEMENT_3D ( 'NONE', #74, #61, #126 ) ;
#82 = PERSON_AND_ORGANIZATION_ROLE ( 'creator' ) ;
#83 = APPROVAL ( #24, 'UNSPECIFIED' ) ;
#84 = EDGE_LOOP ( 'NONE', ( #149 ) ) ;
#85 = AXIS2_PLACEMENT_3D ( 'NONE', #87, #13, #139 ) ;
#86 = PERSON_AND_ORGANIZATION ( #79, #52 ) ;
#87 = CARTESIAN_POINT ( 'NONE',  ( 0.0000000000000000000, 0.0000000000000000000, 0.0000000000000000000 ) ) ;
#88 = DIRECTION ( 'NONE',  ( 0.0000000000000000000, 1.000000000000000000, 0.0000000000000000000 ) ) ;
#89 = DIRECTION ( 'NONE',  ( -3.491481338843133355E-15, 1.224646799147353207E-16, -1.000000000000000000 ) ) ;
#90 = CARTESIAN_POINT ( 'NONE',  ( 8.617577878390877864E-15, -3.022639430366028945E-16, 2.468172400785686005 ) ) ;
#91 = CARTESIAN_POINT ( 'NONE',  ( 8.617577878390877864E-15, -7.135994344001609183E-16, 2.468172400785686005 ) ) ;
#92 = LOCAL_TIME ( 11, 21, 38.00000000000000000, #187 ) ;
#93 = PERSON_AND_ORGANIZATION ( #79, #52 ) ;
#94 = ADVANCED_FACE ( 'NONE', ( #192, #195 ), #29, .T. ) ;
#95 = PERSON_AND_ORGANIZATION ( #79, #52 ) ;
#96 = APPLICATION_PROTOCOL_DEFINITION ( 'international standard', 'config_control_design', 1994, #22 ) ;
#97 = CIRCLE ( 'NONE', #115, 1.500000000000000000 ) ;
#98 = LOCAL_TIME ( 11, 21, 38.00000000000000000, #122 ) ;
#99 = DESIGN_CONTEXT ( 'detailed design', #34, 'design' ) ;
#100 = CALENDAR_DATE ( 2021, 22, 11 ) ;
#101 = CIRCLE ( 'NONE', #179, 1.200000000000000178 ) ;
#102 = DATE_AND_TIME ( #131, #68 ) ;
#103 = DIRECTION ( 'NONE',  ( -3.491481338843133355E-15, 1.224646799147353207E-16, -1.000000000000000000 ) ) ;
#104 = APPROVAL_ROLE ( '' ) ;
#105 = DIRECTION ( 'NONE',  ( 3.491481338843133355E-15, -1.224646799147353207E-16, 1.000000000000000000 ) ) ;
#106 = CLOSED_SHELL ( 'NONE', ( #148, #94, #112 ) ) ;
#107 = DIRECTION ( 'NONE',  ( -3.491481338843133355E-15, 1.224646799147353207E-16, -1.000000000000000000 ) ) ;
#108 = FACE_OUTER_BOUND ( 'NONE', #164, .T. ) ;
#109 = CARTESIAN_POINT ( 'NONE',  ( -8.409538014437756891E-33, 2.949668868945340404E-34, -2.408587415570770685E-18 ) ) ;
#110 = AXIS2_PLACEMENT_3D ( 'NONE', #90, #105, #51 ) ;
#111 = APPROVAL_PERSON_ORGANIZATION ( #86, #141, #42 ) ;
#112 = ADVANCED_FACE ( 'NONE', ( #135 ), #136, .T. ) ;
#113 = CC_DESIGN_PERSON_AND_ORGANIZATION_ASSIGNMENT ( #132, #45, ( #129 ) ) ;
#114 =( LENGTH_UNIT ( ) NAMED_UNIT ( * ) SI_UNIT ( .MILLI., .METRE. ) );
#115 = AXIS2_PLACEMENT_3D ( 'NONE', #168, #75, #88 ) ;
#116 = ORIENTED_EDGE ( 'NONE', *, *, #59, .F. ) ;
#117 = EDGE_LOOP ( 'NONE', ( #27 ) ) ;
#118 = PERSON_AND_ORGANIZATION_ROLE ( 'creator' ) ;
#119 = PRODUCT_RELATED_PRODUCT_CATEGORY ( 'detail', '', ( #185 ) ) ;
#120 = APPROVAL_PERSON_ORGANIZATION ( #95, #83, #134 ) ;
#121 = EDGE_CURVE ( 'NONE', #130, #130, #56, .T. ) ;
#122 = COORDINATED_UNIVERSAL_TIME_OFFSET ( 1, 0, .AHEAD. ) ;
#123 = VERTEX_POINT ( 'NONE', #49 ) ;
#124 = CC_DESIGN_APPROVAL ( #141, ( #129 ) ) ;
#125 = FACE_OUTER_BOUND ( 'NONE', #133, .T. ) ;
#126 = DIRECTION ( 'NONE',  ( 0.0000000000000000000, 1.000000000000000000, 0.0000000000000000000 ) ) ;
#127 = PRODUCT_DEFINITION ( 'UNKNOWN', '', #129, #99 ) ;
#128 = CARTESIAN_POINT ( 'NONE',  ( 1.316288464743861212E-13, 1.499999999999995559, 37.69999999999999574 ) ) ;
#129 = PRODUCT_DEFINITION_FORMATION_WITH_SPECIFIED_SOURCE ( 'ANY', '', #185, .NOT_KNOWN. ) ;
#130 = VERTEX_POINT ( 'NONE', #67 ) ;
#131 = CALENDAR_DATE ( 2021, 22, 11 ) ;
#132 = PERSON_AND_ORGANIZATION ( #79, #52 ) ;
#133 = EDGE_LOOP ( 'NONE', ( #184 ) ) ;
#134 = APPROVAL_ROLE ( '' ) ;
#135 = FACE_OUTER_BOUND ( 'NONE', #146, .T. ) ;
#136 = PLANE ( 'NONE',  #21 ) ;
#137 = CALENDAR_DATE ( 2021, 22, 11 ) ;
#138 = DIRECTION ( 'NONE',  ( 4.275831445896958607E-31, 1.000000000000000000, 1.224646799147353207E-16 ) ) ;
#139 = DIRECTION ( 'NONE',  ( 4.275831445896959482E-31, 1.000000000000000000, 1.224646799147353207E-16 ) ) ;
#140 = FACE_OUTER_BOUND ( 'NONE', #117, .T. ) ;
#141 = APPROVAL ( #188, 'UNSPECIFIED' ) ;
#142 = VERTEX_POINT ( 'NONE', #128 ) ;
#143 = SECURITY_CLASSIFICATION_LEVEL ( 'unclassified' ) ;
#144 = ORIENTED_EDGE ( 'NONE', *, *, #69, .T. ) ;
#145 = COORDINATED_UNIVERSAL_TIME_OFFSET ( 1, 0, .AHEAD. ) ;
#146 = EDGE_LOOP ( 'NONE', ( #23 ) ) ;
#147 = CC_DESIGN_SECURITY_CLASSIFICATION ( #176, ( #129 ) ) ;
#148 = ADVANCED_FACE ( 'NONE', ( #140 ), #175, .F. ) ;
#149 = ORIENTED_EDGE ( 'NONE', *, *, #121, .F. ) ;
#150 = PERSON_AND_ORGANIZATION ( #79, #52 ) ;
#151 = EDGE_LOOP ( 'NONE', ( #190 ) ) ;
#152 = AXIS2_PLACEMENT_3D ( 'NONE', #31, #103, #16 ) ;
#153 = DIRECTION ( 'NONE',  ( 3.491481338843133355E-15, -1.224646799147353207E-16, 1.000000000000000000 ) ) ;
#154 = CC_DESIGN_PERSON_AND_ORGANIZATION_ASSIGNMENT ( #93, #6, ( #185 ) ) ;
#155 = CARTESIAN_POINT ( 'NONE',  ( 1.326762908760390423E-13, 8.998558695971078593E-33, 38.00000000000000000 ) ) ;
#156 = DIRECTION ( 'NONE',  ( -4.275831445896958607E-31, -1.000000000000000000, -1.224646799147353207E-16 ) ) ;
#157 = DATE_AND_TIME ( #137, #98 ) ;
#158 = CARTESIAN_POINT ( 'NONE',  ( 8.617577878390877864E-15, 1.499999999999999778, 2.468172400785686005 ) ) ;
#159 = APPROVAL ( #163, 'UNSPECIFIED' ) ;
#160 = CARTESIAN_POINT ( 'NONE',  ( 1.326762908760390423E-13, -4.653657836759941941E-15, 38.00000000000000000 ) ) ;
#161 = PRODUCT_DEFINITION_SHAPE ( 'NONE', 'NONE',  #127 ) ;
#162 =( GEOMETRIC_REPRESENTATION_CONTEXT ( 3 ) GLOBAL_UNCERTAINTY_ASSIGNED_CONTEXT ( ( #25 ) ) GLOBAL_UNIT_ASSIGNED_CONTEXT ( ( #114, #20, #181 ) ) REPRESENTATION_CONTEXT ( 'NONE', 'WORKASPACE' ) );
#163 = APPROVAL_STATUS ( 'not_yet_approved' ) ;
#164 = EDGE_LOOP ( 'NONE', ( #57 ) ) ;
#165 = PERSON_AND_ORGANIZATION ( #79, #52 ) ;
#166 = PERSON_AND_ORGANIZATION ( #79, #52 ) ;
#167 = CALENDAR_DATE ( 2021, 22, 11 ) ;
#168 = CARTESIAN_POINT ( 'NONE',  ( 8.617577878390877864E-15, -3.022639430366028945E-16, 2.468172400785686005 ) ) ;
#169 = AXIS2_PLACEMENT_3D ( 'NONE', #109, #170, #138 ) ;
#170 = DIRECTION ( 'NONE',  ( -3.491481338843133355E-15, 1.224646799147353207E-16, -1.000000000000000000 ) ) ;
#171 = VERTEX_POINT ( 'NONE', #158 ) ;
#172 = CC_DESIGN_PERSON_AND_ORGANIZATION_ASSIGNMENT ( #150, #11, ( #176 ) ) ;
#173 = DIRECTION ( 'NONE',  ( 4.275831445896958607E-31, 1.000000000000000000, 1.224646799147353207E-16 ) ) ;
#174 = APPROVAL_DATE_TIME ( #157, #159 ) ;
#175 = PLANE ( 'NONE',  #55 ) ;
#176 = SECURITY_CLASSIFICATION ( '', '', #143 ) ;
#177 = MANIFOLD_SOLID_BREP ( 'Corps-Déplacer/Copier1[2]', #106 ) ;
#178 = ADVANCED_BREP_SHAPE_REPRESENTATION ( '326681', ( #36, #177, #43 ), #162 ) ;
#179 = AXIS2_PLACEMENT_3D ( 'NONE', #160, #89, #46 ) ;
#180 = ADVANCED_FACE ( 'NONE', ( #77, #28 ), #63, .T. ) ;
#181 =( NAMED_UNIT ( * ) SI_UNIT ( $, .STERADIAN. ) SOLID_ANGLE_UNIT ( ) );
#182 = APPROVAL_PERSON_ORGANIZATION ( #166, #159, #104 ) ;
#183 = ADVANCED_FACE ( 'NONE', ( #125 ), #62, .F. ) ;
#184 = ORIENTED_EDGE ( 'NONE', *, *, #18, .F. ) ;
#185 = PRODUCT ( '326681', '326681', '', ( #80 ) ) ;
#186 = COORDINATED_UNIVERSAL_TIME_OFFSET ( 1, 0, .AHEAD. ) ;
#187 = COORDINATED_UNIVERSAL_TIME_OFFSET ( 1, 0, .AHEAD. ) ;
#188 = APPROVAL_STATUS ( 'not_yet_approved' ) ;
#189 = DIRECTION ( 'NONE',  ( -4.275831445896958607E-31, -1.000000000000000000, -1.224646799147353207E-16 ) ) ;
#190 = ORIENTED_EDGE ( 'NONE', *, *, #18, .T. ) ;
#191 = AXIS2_PLACEMENT_3D ( 'NONE', #30, #107, #14 ) ;
#192 = FACE_BOUND ( 'NONE', #84, .T. ) ;
#193 = CC_DESIGN_PERSON_AND_ORGANIZATION_ASSIGNMENT ( #165, #82, ( #129 ) ) ;
#194 = EDGE_LOOP ( 'NONE', ( #58 ) ) ;
#195 = FACE_OUTER_BOUND ( 'NONE', #9, .T. ) ;
#196 = CLOSED_SHELL ( 'NONE', ( #26, #180, #64, #183 ) ) ;
#197 = EDGE_CURVE ( 'NONE', #142, #142, #199, .T. ) ;
#198 = CARTESIAN_POINT ( 'NONE',  ( 8.617577878390877864E-15, 1.499999999999999778, 2.468172400785686005 ) ) ;
#199 = CIRCLE ( 'NONE', #191, 1.500000000000000000 ) ;
#200 = CC_DESIGN_DATE_AND_TIME_ASSIGNMENT ( #102, #201, ( #176 ) ) ;
#201 = DATE_TIME_ROLE ( 'classification_date' ) ;
#202 = CC_DESIGN_PERSON_AND_ORGANIZATION_ASSIGNMENT ( #73, #118, ( #127 ) ) ;
#203 = DATE_AND_TIME ( #100, #32 ) ;
ENDSEC;
END-ISO-10303-21;
