ISO-10303-21;
HEADER;
FILE_DESCRIPTION (( 'STEP AP203' ),
    '1' );
FILE_NAME ('326680.step',
    '2021-11-22T10:21:38',
    ( '' ),
    ( '' ),
    'SwSTEP 2.0',
    'SolidWorks 2019',
    '' );
FILE_SCHEMA (( 'CONFIG_CONTROL_DESIGN' ));
ENDSEC;

DATA;
#1 = DATE_AND_TIME ( #97, #45 ) ;
#2 = APPROVAL_ROLE ( '' ) ;
#3 = COORDINATED_UNIVERSAL_TIME_OFFSET ( 1, 0, .AHEAD. ) ;
#4 = EDGE_LOOP ( 'NONE', ( #13 ) ) ;
#5 = VERTEX_POINT ( 'NONE', #142 ) ;
#6 = EDGE_LOOP ( 'NONE', ( #159 ) ) ;
#7 = AXIS2_PLACEMENT_3D ( 'NONE', #92, #58, #9 ) ;
#8 = AXIS2_PLACEMENT_3D ( 'NONE', #90, #71, #43 ) ;
#9 = DIRECTION ( 'NONE',  ( 0.0000000000000000000, 1.000000000000000000, 0.0000000000000000000 ) ) ;
#10 = CALENDAR_DATE ( 2021, 22, 11 ) ;
#11 = ORIENTED_EDGE ( 'NONE', *, *, #32, .T. ) ;
#12 = PRODUCT_DEFINITION_SHAPE ( 'NONE', 'NONE',  #29 ) ;
#13 = ORIENTED_EDGE ( 'NONE', *, *, #55, .F. ) ;
#14 =( GEOMETRIC_REPRESENTATION_CONTEXT ( 3 ) GLOBAL_UNCERTAINTY_ASSIGNED_CONTEXT ( ( #63 ) ) GLOBAL_UNIT_ASSIGNED_CONTEXT ( ( #47, #79, #171 ) ) REPRESENTATION_CONTEXT ( 'NONE', 'WORKASPACE' ) );
#15 = CLOSED_SHELL ( 'NONE', ( #102, #177, #66 ) ) ;
#16 = DESIGN_CONTEXT ( 'detailed design', #182, 'design' ) ;
#17 = MECHANICAL_CONTEXT ( 'NONE', #106, 'mechanical' ) ;
#18 = AXIS2_PLACEMENT_3D ( 'NONE', #133, #37, #181 ) ;
#19 = PERSON_AND_ORGANIZATION_ROLE ( 'design_owner' ) ;
#20 = DATE_AND_TIME ( #85, #49 ) ;
#21 = APPROVAL_DATE_TIME ( #20, #202 ) ;
#22 = COORDINATED_UNIVERSAL_TIME_OFFSET ( 1, 0, .AHEAD. ) ;
#23 = ORIENTED_EDGE ( 'NONE', *, *, #196, .T. ) ;
#24 = COORDINATED_UNIVERSAL_TIME_OFFSET ( 1, 0, .AHEAD. ) ;
#25 = DIRECTION ( 'NONE',  ( 4.275831445896958607E-31, 1.000000000000000000, 1.224646799147353207E-16 ) ) ;
#26 = FACE_OUTER_BOUND ( 'NONE', #192, .T. ) ;
#27 = CARTESIAN_POINT ( 'NONE',  ( 8.768763455204753080E-15, -7.261187227229707330E-16, 2.511473670974908590 ) ) ;
#28 = ORGANIZATION ( 'UNSPECIFIED', 'UNSPECIFIED', '' ) ;
#29 = PRODUCT_DEFINITION ( 'UNKNOWN', '', #170, #16 ) ;
#30 = AXIS2_PLACEMENT_3D ( 'NONE', #148, #41, #108 ) ;
#31 = SECURITY_CLASSIFICATION ( '', '', #101 ) ;
#32 = EDGE_CURVE ( 'NONE', #53, #53, #129, .T. ) ;
#33 = CC_DESIGN_SECURITY_CLASSIFICATION ( #31, ( #170 ) ) ;
#34 = ORIENTED_EDGE ( 'NONE', *, *, #124, .F. ) ;
#35 = DATE_AND_TIME ( #10, #201 ) ;
#36 = EDGE_LOOP ( 'NONE', ( #23 ) ) ;
#37 = DIRECTION ( 'NONE',  ( 3.491481338843133355E-15, -1.224646799147353207E-16, 1.000000000000000000 ) ) ;
#38 = AXIS2_PLACEMENT_3D ( 'NONE', #39, #166, #88 ) ;
#39 = CARTESIAN_POINT ( 'NONE',  ( 8.768763455204753080E-15, -3.075668192302274747E-16, 2.511473670974908590 ) ) ;
#40 = CARTESIAN_POINT ( 'NONE',  ( -2.137915722948467042E-32, 7.498798913309245275E-34, -6.123233995736730907E-18 ) ) ;
#41 = DIRECTION ( 'NONE',  ( -3.491481338843133355E-15, 1.224646799147353207E-16, -1.000000000000000000 ) ) ;
#42 = AXIS2_PLACEMENT_3D ( 'NONE', #165, #104, #57 ) ;
#43 = DIRECTION ( 'NONE',  ( 0.0000000000000000000, 1.000000000000000000, 0.0000000000000000000 ) ) ;
#44 = DATE_AND_TIME ( #65, #135 ) ;
#45 = LOCAL_TIME ( 11, 21, 38.00000000000000000, #187 ) ;
#46 = APPROVAL_DATE_TIME ( #44, #51 ) ;
#47 =( LENGTH_UNIT ( ) NAMED_UNIT ( * ) SI_UNIT ( .MILLI., .METRE. ) );
#48 = VERTEX_POINT ( 'NONE', #141 ) ;
#49 = LOCAL_TIME ( 11, 21, 38.00000000000000000, #22 ) ;
#50 = EDGE_LOOP ( 'NONE', ( #173 ) ) ;
#51 = APPROVAL ( #184, 'UNSPECIFIED' ) ;
#52 = APPROVAL_STATUS ( 'not_yet_approved' ) ;
#53 = VERTEX_POINT ( 'NONE', #190 ) ;
#54 = ORIENTED_EDGE ( 'NONE', *, *, #55, .T. ) ;
#55 = EDGE_CURVE ( 'NONE', #48, #48, #84, .T. ) ;
#56 = DIRECTION ( 'NONE',  ( 4.275831445896958607E-31, 1.000000000000000000, 1.224646799147353207E-16 ) ) ;
#57 = DIRECTION ( 'NONE',  ( 0.0000000000000000000, 1.000000000000000000, 0.0000000000000000000 ) ) ;
#58 = DIRECTION ( 'NONE',  ( -3.491481338843133355E-15, 1.224646799147353207E-16, -1.000000000000000000 ) ) ;
#59 = ADVANCED_FACE ( 'NONE', ( #61, #200 ), #203, .T. ) ;
#60 = FACE_OUTER_BOUND ( 'NONE', #144, .T. ) ;
#61 = FACE_BOUND ( 'NONE', #36, .T. ) ;
#62 = PERSON_AND_ORGANIZATION ( #118, #28 ) ;
#63 = UNCERTAINTY_MEASURE_WITH_UNIT (LENGTH_MEASURE( 1.000000000000000082E-05 ), #47, 'distance_accuracy_value', 'NONE');
#64 = DATE_AND_TIME ( #128, #81 ) ;
#65 = CALENDAR_DATE ( 2021, 22, 11 ) ;
#66 = ADVANCED_FACE ( 'NONE', ( #163 ), #139, .T. ) ;
#67 = CARTESIAN_POINT ( 'NONE',  ( 1.326762908760390423E-13, 1.199999999999995515, 38.00000000000000000 ) ) ;
#68 = EDGE_LOOP ( 'NONE', ( #99 ) ) ;
#69 = PERSON_AND_ORGANIZATION ( #118, #28 ) ;
#70 = ADVANCED_FACE ( 'NONE', ( #138 ), #122, .F. ) ;
#71 = DIRECTION ( 'NONE',  ( -3.491481338843133355E-15, 1.224646799147353207E-16, -1.000000000000000000 ) ) ;
#72 = DIRECTION ( 'NONE',  ( 3.491481338843133355E-15, -1.224646799147353207E-16, 1.000000000000000000 ) ) ;
#73 = CARTESIAN_POINT ( 'NONE',  ( 0.0000000000000000000, 0.0000000000000000000, 0.0000000000000000000 ) ) ;
#74 = AXIS2_PLACEMENT_3D ( 'NONE', #27, #75, #120 ) ;
#75 = DIRECTION ( 'NONE',  ( 3.491481338843133355E-15, -1.224646799147353207E-16, 1.000000000000000000 ) ) ;
#76 = PLANE ( 'NONE',  #18 ) ;
#77 = APPROVAL_PERSON_ORGANIZATION ( #69, #202, #160 ) ;
#78 = COORDINATED_UNIVERSAL_TIME_OFFSET ( 1, 0, .AHEAD. ) ;
#79 =( NAMED_UNIT ( * ) PLANE_ANGLE_UNIT ( ) SI_UNIT ( $, .RADIAN. ) );
#80 = DATE_TIME_ROLE ( 'creation_date' ) ;
#81 = LOCAL_TIME ( 11, 21, 38.00000000000000000, #78 ) ;
#82 = APPROVAL_ROLE ( '' ) ;
#83 = PERSON_AND_ORGANIZATION ( #118, #28 ) ;
#84 = CIRCLE ( 'NONE', #137, 0.04999999999999971134 ) ;
#85 = CALENDAR_DATE ( 2021, 22, 11 ) ;
#86 = EDGE_LOOP ( 'NONE', ( #103 ) ) ;
#87 = APPROVAL_PERSON_ORGANIZATION ( #62, #51, #82 ) ;
#88 = DIRECTION ( 'NONE',  ( 0.0000000000000000000, -1.000000000000000000, 0.0000000000000000000 ) ) ;
#89 = CIRCLE ( 'NONE', #8, 1.500000000000000000 ) ;
#90 = CARTESIAN_POINT ( 'NONE',  ( 8.768763455204753080E-15, -3.075668192302274747E-16, 2.511473670974908590 ) ) ;
#91 = APPROVAL ( #140, 'UNSPECIFIED' ) ;
#92 = CARTESIAN_POINT ( 'NONE',  ( 8.768763455204753080E-15, -3.075668192302274747E-16, 2.511473670974908590 ) ) ;
#93 = PLANE ( 'NONE',  #113 ) ;
#94 = DIRECTION ( 'NONE',  ( -3.491481338843133355E-15, 1.224646799147353207E-16, -1.000000000000000000 ) ) ;
#95 = DIRECTION ( 'NONE',  ( 0.0000000000000000000, 0.0000000000000000000, 1.000000000000000000 ) ) ;
#96 = APPLICATION_PROTOCOL_DEFINITION ( 'international standard', 'config_control_design', 1994, #106 ) ;
#97 = CALENDAR_DATE ( 2021, 22, 11 ) ;
#98 = DIRECTION ( 'NONE',  ( 1.000000000000000000, 0.0000000000000000000, 0.0000000000000000000 ) ) ;
#99 = ORIENTED_EDGE ( 'NONE', *, *, #124, .T. ) ;
#100 = CC_DESIGN_APPROVAL ( #91, ( #29 ) ) ;
#101 = SECURITY_CLASSIFICATION_LEVEL ( 'unclassified' ) ;
#102 = ADVANCED_FACE ( 'NONE', ( #60 ), #76, .F. ) ;
#103 = ORIENTED_EDGE ( 'NONE', *, *, #156, .F. ) ;
#104 = DIRECTION ( 'NONE',  ( -3.491481338843133355E-15, 1.224646799147353207E-16, -1.000000000000000000 ) ) ;
#105 = PRODUCT ( '326680', '326680', '', ( #17 ) ) ;
#106 = APPLICATION_CONTEXT ( 'configuration controlled 3d designs of mechanical parts and assemblies' ) ;
#107 = MANIFOLD_SOLID_BREP ( 'Corps-Déplacer/Copier1[1]', #172 ) ;
#108 = DIRECTION ( 'NONE',  ( 0.0000000000000000000, 1.000000000000000000, 0.0000000000000000000 ) ) ;
#109 = CARTESIAN_POINT ( 'NONE',  ( 8.768763455204753080E-15, -7.261187227229707330E-16, 2.511473670974908590 ) ) ;
#110 = MANIFOLD_SOLID_BREP ( 'Corps-Déplacer/Copier1[2]', #15 ) ;
#111 = PERSON_AND_ORGANIZATION ( #118, #28 ) ;
#112 = VERTEX_POINT ( 'NONE', #67 ) ;
#113 = AXIS2_PLACEMENT_3D ( 'NONE', #161, #151, #25 ) ;
#114 = EDGE_LOOP ( 'NONE', ( #34 ) ) ;
#115 = CC_DESIGN_PERSON_AND_ORGANIZATION_ASSIGNMENT ( #125, #174, ( #29 ) ) ;
#116 = PRODUCT_RELATED_PRODUCT_CATEGORY ( 'detail', '', ( #105 ) ) ;
#117 = SHAPE_DEFINITION_REPRESENTATION ( #12, #127 ) ;
#118 = PERSON ( 'UNSPECIFIED', 'UNSPECIFIED', 'UNSPECIFIED', ('UNSPECIFIED'), ('UNSPECIFIED'), ('UNSPECIFIED') ) ;
#119 = DIRECTION ( 'NONE',  ( -3.491481338843133355E-15, 1.224646799147353207E-16, -1.000000000000000000 ) ) ;
#120 = DIRECTION ( 'NONE',  ( -4.275831445896958607E-31, -1.000000000000000000, -1.224646799147353207E-16 ) ) ;
#121 = CC_DESIGN_PERSON_AND_ORGANIZATION_ASSIGNMENT ( #176, #132, ( #31 ) ) ;
#122 = PLANE ( 'NONE',  #186 ) ;
#123 = CC_DESIGN_APPROVAL ( #51, ( #170 ) ) ;
#124 = EDGE_CURVE ( 'NONE', #5, #5, #131, .T. ) ;
#125 = PERSON_AND_ORGANIZATION ( #118, #28 ) ;
#126 = CARTESIAN_POINT ( 'NONE',  ( 0.0000000000000000000, 0.0000000000000000000, 0.0000000000000000000 ) ) ;
#127 = ADVANCED_BREP_SHAPE_REPRESENTATION ( '326680', ( #107, #110, #149 ), #14 ) ;
#128 = CALENDAR_DATE ( 2021, 22, 11 ) ;
#129 = CIRCLE ( 'NONE', #7, 1.500000000000000000 ) ;
#130 = ORIENTED_EDGE ( 'NONE', *, *, #156, .T. ) ;
#131 = CIRCLE ( 'NONE', #42, 1.500000000000000000 ) ;
#132 = PERSON_AND_ORGANIZATION_ROLE ( 'classification_officer' ) ;
#133 = CARTESIAN_POINT ( 'NONE',  ( -1.068957861474233521E-32, 3.749399456654622637E-34, -3.061616997868365453E-18 ) ) ;
#134 = FACE_OUTER_BOUND ( 'NONE', #68, .T. ) ;
#135 = LOCAL_TIME ( 11, 21, 38.00000000000000000, #3 ) ;
#136 = DIRECTION ( 'NONE',  ( -3.491481338843133355E-15, 1.224646799147353207E-16, -1.000000000000000000 ) ) ;
#137 = AXIS2_PLACEMENT_3D ( 'NONE', #40, #119, #56 ) ;
#138 = FACE_OUTER_BOUND ( 'NONE', #175, .T. ) ;
#139 = PLANE ( 'NONE',  #74 ) ;
#140 = APPROVAL_STATUS ( 'not_yet_approved' ) ;
#141 = CARTESIAN_POINT ( 'NONE',  ( 0.0000000000000000000, 0.04999999999999971134, 0.0000000000000000000 ) ) ;
#142 = CARTESIAN_POINT ( 'NONE',  ( 1.316288464743861212E-13, 1.499999999999995559, 37.69999999999999574 ) ) ;
#143 = PERSON_AND_ORGANIZATION_ROLE ( 'design_supplier' ) ;
#144 = EDGE_LOOP ( 'NONE', ( #54 ) ) ;
#145 = APPLICATION_PROTOCOL_DEFINITION ( 'international standard', 'config_control_design', 1994, #182 ) ;
#146 = CC_DESIGN_DATE_AND_TIME_ASSIGNMENT ( #1, #80, ( #29 ) ) ;
#147 = FACE_BOUND ( 'NONE', #4, .T. ) ;
#148 = CARTESIAN_POINT ( 'NONE',  ( 1.316288464743861212E-13, -4.616918432785521081E-15, 37.69999999999999574 ) ) ;
#149 = AXIS2_PLACEMENT_3D ( 'NONE', #126, #95, #98 ) ;
#150 = CC_DESIGN_DATE_AND_TIME_ASSIGNMENT ( #35, #158, ( #31 ) ) ;
#151 = DIRECTION ( 'NONE',  ( -3.491481338843133355E-15, 1.224646799147353207E-16, -1.000000000000000000 ) ) ;
#152 = PERSON_AND_ORGANIZATION ( #118, #28 ) ;
#153 = ADVANCED_FACE ( 'NONE', ( #178 ), #93, .F. ) ;
#154 = VERTEX_POINT ( 'NONE', #157 ) ;
#155 = CIRCLE ( 'NONE', #183, 1.200000000000000178 ) ;
#156 = EDGE_CURVE ( 'NONE', #154, #154, #89, .T. ) ;
#157 = CARTESIAN_POINT ( 'NONE',  ( 8.768763455204753080E-15, 1.499999999999999778, 2.511473670974908590 ) ) ;
#158 = DATE_TIME_ROLE ( 'classification_date' ) ;
#159 = ORIENTED_EDGE ( 'NONE', *, *, #196, .F. ) ;
#160 = APPROVAL_ROLE ( '' ) ;
#161 = CARTESIAN_POINT ( 'NONE',  ( 1.326762908760390423E-13, 8.998558695971078593E-33, 38.00000000000000000 ) ) ;
#162 = CYLINDRICAL_SURFACE ( 'NONE', #194, 1.500000000000000000 ) ;
#163 = FACE_OUTER_BOUND ( 'NONE', #50, .T. ) ;
#164 = CC_DESIGN_APPROVAL ( #202, ( #31 ) ) ;
#165 = CARTESIAN_POINT ( 'NONE',  ( 1.316288464743861212E-13, -4.616918432785521081E-15, 37.69999999999999574 ) ) ;
#166 = DIRECTION ( 'NONE',  ( 3.491481338843133355E-15, -1.224646799147353207E-16, 1.000000000000000000 ) ) ;
#167 = APPROVAL_DATE_TIME ( #64, #91 ) ;
#168 = PERSON_AND_ORGANIZATION ( #118, #28 ) ;
#169 = CC_DESIGN_PERSON_AND_ORGANIZATION_ASSIGNMENT ( #83, #19, ( #105 ) ) ;
#170 = PRODUCT_DEFINITION_FORMATION_WITH_SPECIFIED_SOURCE ( 'ANY', '', #105, .NOT_KNOWN. ) ;
#171 =( NAMED_UNIT ( * ) SI_UNIT ( $, .STERADIAN. ) SOLID_ANGLE_UNIT ( ) );
#172 = CLOSED_SHELL ( 'NONE', ( #70, #193, #59, #153 ) ) ;
#173 = ORIENTED_EDGE ( 'NONE', *, *, #32, .F. ) ;
#174 = PERSON_AND_ORGANIZATION_ROLE ( 'creator' ) ;
#175 = EDGE_LOOP ( 'NONE', ( #130 ) ) ;
#176 = PERSON_AND_ORGANIZATION ( #118, #28 ) ;
#177 = ADVANCED_FACE ( 'NONE', ( #147, #26 ), #191, .T. ) ;
#178 = FACE_OUTER_BOUND ( 'NONE', #6, .T. ) ;
#179 = CC_DESIGN_PERSON_AND_ORGANIZATION_ASSIGNMENT ( #111, #189, ( #170 ) ) ;
#180 = DIRECTION ( 'NONE',  ( 4.275831445896959482E-31, 1.000000000000000000, 1.224646799147353207E-16 ) ) ;
#181 = DIRECTION ( 'NONE',  ( -4.275831445896958607E-31, -1.000000000000000000, -1.224646799147353207E-16 ) ) ;
#182 = APPLICATION_CONTEXT ( 'configuration controlled 3d designs of mechanical parts and assemblies' ) ;
#183 = AXIS2_PLACEMENT_3D ( 'NONE', #197, #94, #195 ) ;
#184 = APPROVAL_STATUS ( 'not_yet_approved' ) ;
#185 = APPROVAL_PERSON_ORGANIZATION ( #152, #91, #2 ) ;
#186 = AXIS2_PLACEMENT_3D ( 'NONE', #109, #72, #199 ) ;
#187 = COORDINATED_UNIVERSAL_TIME_OFFSET ( 1, 0, .AHEAD. ) ;
#188 = CC_DESIGN_PERSON_AND_ORGANIZATION_ASSIGNMENT ( #168, #143, ( #170 ) ) ;
#189 = PERSON_AND_ORGANIZATION_ROLE ( 'creator' ) ;
#190 = CARTESIAN_POINT ( 'NONE',  ( 8.768763455204753080E-15, 1.499999999999999778, 2.511473670974908590 ) ) ;
#191 = CONICAL_SURFACE ( 'NONE', #38, 1.500000000000000000, 0.5235987755982927094 ) ;
#192 = EDGE_LOOP ( 'NONE', ( #11 ) ) ;
#193 = ADVANCED_FACE ( 'NONE', ( #134, #198 ), #162, .T. ) ;
#194 = AXIS2_PLACEMENT_3D ( 'NONE', #73, #136, #180 ) ;
#195 = DIRECTION ( 'NONE',  ( 0.0000000000000000000, 1.000000000000000000, 0.0000000000000000000 ) ) ;
#196 = EDGE_CURVE ( 'NONE', #112, #112, #155, .T. ) ;
#197 = CARTESIAN_POINT ( 'NONE',  ( 1.326762908760390423E-13, -4.653657836759941941E-15, 38.00000000000000000 ) ) ;
#198 = FACE_OUTER_BOUND ( 'NONE', #86, .T. ) ;
#199 = DIRECTION ( 'NONE',  ( -4.275831445896958607E-31, -1.000000000000000000, -1.224646799147353207E-16 ) ) ;
#200 = FACE_OUTER_BOUND ( 'NONE', #114, .T. ) ;
#201 = LOCAL_TIME ( 11, 21, 38.00000000000000000, #24 ) ;
#202 = APPROVAL ( #52, 'UNSPECIFIED' ) ;
#203 = CONICAL_SURFACE ( 'NONE', #30, 1.500000000000000000, 0.7853981633974453924 ) ;
ENDSEC;
END-ISO-10303-21;
