ISO-10303-21;
HEADER;
FILE_DESCRIPTION (( 'STEP AP203' ),
    '1' );
FILE_NAME ('326679.step',
    '2021-11-22T10:21:37',
    ( '' ),
    ( '' ),
    'SwSTEP 2.0',
    'SolidWorks 2019',
    '' );
FILE_SCHEMA (( 'CONFIG_CONTROL_DESIGN' ));
ENDSEC;

DATA;
#1 = UNCERTAINTY_MEASURE_WITH_UNIT (LENGTH_MEASURE( 1.000000000000000082E-05 ), #61, 'distance_accuracy_value', 'NONE');
#2 = AXIS2_PLACEMENT_3D ( 'NONE', #90, #190, #23 ) ;
#3 = DIRECTION ( 'NONE',  ( 3.491481338843133355E-15, -1.224646799147353207E-16, 1.000000000000000000 ) ) ;
#4 = FACE_OUTER_BOUND ( 'NONE', #131, .T. ) ;
#5 = DIRECTION ( 'NONE',  ( 0.0000000000000000000, 0.0000000000000000000, 1.000000000000000000 ) ) ;
#6 = FACE_BOUND ( 'NONE', #142, .T. ) ;
#7 = PRODUCT_DEFINITION ( 'UNKNOWN', '', #123, #111 ) ;
#8 = CALENDAR_DATE ( 2021, 22, 11 ) ;
#9 = LOCAL_TIME ( 11, 21, 37.00000000000000000, #24 ) ;
#10 = LOCAL_TIME ( 11, 21, 37.00000000000000000, #19 ) ;
#11 = PERSON_AND_ORGANIZATION_ROLE ( 'creator' ) ;
#12 = DIRECTION ( 'NONE',  ( 4.275831445896959482E-31, 1.000000000000000000, 1.224646799147353207E-16 ) ) ;
#13 = CARTESIAN_POINT ( 'NONE',  ( 1.316288464743861212E-13, 1.499999999999995559, 37.69999999999999574 ) ) ;
#14 = DIRECTION ( 'NONE',  ( 3.491481338843133355E-15, -1.224646799147353207E-16, 1.000000000000000000 ) ) ;
#15 = VERTEX_POINT ( 'NONE', #13 ) ;
#16 = AXIS2_PLACEMENT_3D ( 'NONE', #42, #72, #160 ) ;
#17 = PERSON_AND_ORGANIZATION_ROLE ( 'design_supplier' ) ;
#18 = LOCAL_TIME ( 11, 21, 37.00000000000000000, #76 ) ;
#19 = COORDINATED_UNIVERSAL_TIME_OFFSET ( 1, 0, .AHEAD. ) ;
#20 = APPROVAL_PERSON_ORGANIZATION ( #69, #203, #183 ) ;
#21 = DIRECTION ( 'NONE',  ( -4.275831445896958607E-31, -1.000000000000000000, -1.224646799147353207E-16 ) ) ;
#22 = ORIENTED_EDGE ( 'NONE', *, *, #33, .F. ) ;
#23 = DIRECTION ( 'NONE',  ( 0.0000000000000000000, 1.000000000000000000, 0.0000000000000000000 ) ) ;
#24 = COORDINATED_UNIVERSAL_TIME_OFFSET ( 1, 0, .AHEAD. ) ;
#25 = CARTESIAN_POINT ( 'NONE',  ( 8.829237685930298433E-15, -7.311264380520944223E-16, 2.528794179050596558 ) ) ;
#26 = DIRECTION ( 'NONE',  ( 4.275831445896958607E-31, 1.000000000000000000, 1.224646799147353207E-16 ) ) ;
#27 = EDGE_LOOP ( 'NONE', ( #133 ) ) ;
#28 = APPLICATION_PROTOCOL_DEFINITION ( 'international standard', 'config_control_design', 1994, #50 ) ;
#29 = AXIS2_PLACEMENT_3D ( 'NONE', #149, #79, #198 ) ;
#30 = PERSON_AND_ORGANIZATION ( #92, #89 ) ;
#31 = CALENDAR_DATE ( 2021, 22, 11 ) ;
#32 = CLOSED_SHELL ( 'NONE', ( #153, #67, #62 ) ) ;
#33 = EDGE_CURVE ( 'NONE', #117, #117, #59, .T. ) ;
#34 = APPLICATION_CONTEXT ( 'configuration controlled 3d designs of mechanical parts and assemblies' ) ;
#35 = PRODUCT_DEFINITION_SHAPE ( 'NONE', 'NONE',  #7 ) ;
#36 = CC_DESIGN_SECURITY_CLASSIFICATION ( #38, ( #123 ) ) ;
#37 = CARTESIAN_POINT ( 'NONE',  ( 0.0000000000000000000, 0.0000000000000000000, 0.0000000000000000000 ) ) ;
#38 = SECURITY_CLASSIFICATION ( '', '', #201 ) ;
#39 = CC_DESIGN_PERSON_AND_ORGANIZATION_ASSIGNMENT ( #30, #17, ( #123 ) ) ;
#40 = DIRECTION ( 'NONE',  ( -3.491481338843133355E-15, 1.224646799147353207E-16, -1.000000000000000000 ) ) ;
#41 = DIRECTION ( 'NONE',  ( -3.491481338843133355E-15, 1.224646799147353207E-16, -1.000000000000000000 ) ) ;
#42 = CARTESIAN_POINT ( 'NONE',  ( 8.829237685930300011E-15, -3.096879697076772180E-16, 2.528794179050597002 ) ) ;
#43 = CARTESIAN_POINT ( 'NONE',  ( 1.326762908760390423E-13, 8.998558695971078593E-33, 38.00000000000000000 ) ) ;
#44 = PLANE ( 'NONE',  #185 ) ;
#45 = APPLICATION_PROTOCOL_DEFINITION ( 'international standard', 'config_control_design', 1994, #34 ) ;
#46 = AXIS2_PLACEMENT_3D ( 'NONE', #25, #128, #101 ) ;
#47 = ORIENTED_EDGE ( 'NONE', *, *, #187, .T. ) ;
#48 = COORDINATED_UNIVERSAL_TIME_OFFSET ( 1, 0, .AHEAD. ) ;
#49 = CALENDAR_DATE ( 2021, 22, 11 ) ;
#50 = APPLICATION_CONTEXT ( 'configuration controlled 3d designs of mechanical parts and assemblies' ) ;
#51 = DIRECTION ( 'NONE',  ( -3.491481338843133355E-15, 1.224646799147353207E-16, -1.000000000000000000 ) ) ;
#52 = PLANE ( 'NONE',  #159 ) ;
#53 = PERSON_AND_ORGANIZATION ( #92, #89 ) ;
#54 = DIRECTION ( 'NONE',  ( 0.0000000000000000000, 1.000000000000000000, 0.0000000000000000000 ) ) ;
#55 = CC_DESIGN_PERSON_AND_ORGANIZATION_ASSIGNMENT ( #139, #171, ( #38 ) ) ;
#56 = EDGE_LOOP ( 'NONE', ( #163 ) ) ;
#57 = ORIENTED_EDGE ( 'NONE', *, *, #130, .F. ) ;
#58 = FACE_OUTER_BOUND ( 'NONE', #195, .T. ) ;
#59 = CIRCLE ( 'NONE', #151, 0.03999999999999979267 ) ;
#60 = FACE_BOUND ( 'NONE', #113, .T. ) ;
#61 =( LENGTH_UNIT ( ) NAMED_UNIT ( * ) SI_UNIT ( .MILLI., .METRE. ) );
#62 = ADVANCED_FACE ( 'NONE', ( #178 ), #44, .T. ) ;
#63 = COORDINATED_UNIVERSAL_TIME_OFFSET ( 1, 0, .AHEAD. ) ;
#64 = DATE_AND_TIME ( #49, #152 ) ;
#65 = CIRCLE ( 'NONE', #29, 1.500000000000000000 ) ;
#66 = APPROVAL_DATE_TIME ( #154, #203 ) ;
#67 = ADVANCED_FACE ( 'NONE', ( #6, #135 ), #186, .T. ) ;
#68 = APPROVAL_ROLE ( '' ) ;
#69 = PERSON_AND_ORGANIZATION ( #92, #89 ) ;
#70 = ADVANCED_BREP_SHAPE_REPRESENTATION ( '326679', ( #176, #108, #166 ), #191 ) ;
#71 = PRODUCT ( '326679', '326679', '', ( #87 ) ) ;
#72 = DIRECTION ( 'NONE',  ( 3.491481338843133355E-15, -1.224646799147353207E-16, 1.000000000000000000 ) ) ;
#73 = ORIENTED_EDGE ( 'NONE', *, *, #187, .F. ) ;
#74 = CARTESIAN_POINT ( 'NONE',  ( 1.316288464743861212E-13, -4.616918432785521081E-15, 37.69999999999999574 ) ) ;
#75 = DATE_AND_TIME ( #8, #9 ) ;
#76 = COORDINATED_UNIVERSAL_TIME_OFFSET ( 1, 0, .AHEAD. ) ;
#77 = EDGE_LOOP ( 'NONE', ( #85 ) ) ;
#78 = DIRECTION ( 'NONE',  ( -3.491481338843133355E-15, 1.224646799147353207E-16, -1.000000000000000000 ) ) ;
#79 = DIRECTION ( 'NONE',  ( -3.491481338843133355E-15, 1.224646799147353207E-16, -1.000000000000000000 ) ) ;
#80 = ADVANCED_FACE ( 'NONE', ( #144 ), #177, .F. ) ;
#81 = PERSON_AND_ORGANIZATION ( #92, #89 ) ;
#82 = CALENDAR_DATE ( 2021, 22, 11 ) ;
#83 = CC_DESIGN_APPROVAL ( #194, ( #7 ) ) ;
#84 = AXIS2_PLACEMENT_3D ( 'NONE', #100, #40, #129 ) ;
#85 = ORIENTED_EDGE ( 'NONE', *, *, #173, .F. ) ;
#86 = CARTESIAN_POINT ( 'NONE',  ( 8.829237685930298433E-15, -7.311264380520944223E-16, 2.528794179050596558 ) ) ;
#87 = MECHANICAL_CONTEXT ( 'NONE', #50, 'mechanical' ) ;
#88 = EDGE_LOOP ( 'NONE', ( #57 ) ) ;
#89 = ORGANIZATION ( 'UNSPECIFIED', 'UNSPECIFIED', '' ) ;
#90 = CARTESIAN_POINT ( 'NONE',  ( 1.326762908760390423E-13, -4.653657836759941941E-15, 38.00000000000000000 ) ) ;
#91 = CYLINDRICAL_SURFACE ( 'NONE', #125, 1.500000000000000000 ) ;
#92 = PERSON ( 'UNSPECIFIED', 'UNSPECIFIED', 'UNSPECIFIED', ('UNSPECIFIED'), ('UNSPECIFIED'), ('UNSPECIFIED') ) ;
#93 = ORIENTED_EDGE ( 'NONE', *, *, #130, .T. ) ;
#94 = CARTESIAN_POINT ( 'NONE',  ( 8.829237685930300011E-15, 1.500000000000000000, 2.528794179050597002 ) ) ;
#95 = CONICAL_SURFACE ( 'NONE', #141, 1.500000000000000000, 0.7853981633974453924 ) ;
#96 = CC_DESIGN_APPROVAL ( #203, ( #38 ) ) ;
#97 = CC_DESIGN_PERSON_AND_ORGANIZATION_ASSIGNMENT ( #158, #11, ( #7 ) ) ;
#98 = LOCAL_TIME ( 11, 21, 37.00000000000000000, #63 ) ;
#99 = CIRCLE ( 'NONE', #112, 1.500000000000000222 ) ;
#100 = CARTESIAN_POINT ( 'NONE',  ( 8.829237685930300011E-15, -3.096879697076772180E-16, 2.528794179050597002 ) ) ;
#101 = DIRECTION ( 'NONE',  ( -4.275831445896958607E-31, -1.000000000000000000, -1.224646799147353207E-16 ) ) ;
#102 = APPROVAL_STATUS ( 'not_yet_approved' ) ;
#103 = CARTESIAN_POINT ( 'NONE',  ( -9.135885529605718545E-32, 3.204437281888888060E-33, -2.616621612141510432E-17 ) ) ;
#104 = APPROVAL_DATE_TIME ( #75, #194 ) ;
#105 = ORIENTED_EDGE ( 'NONE', *, *, #33, .T. ) ;
#106 = APPROVAL_PERSON_ORGANIZATION ( #175, #194, #145 ) ;
#107 = CC_DESIGN_DATE_AND_TIME_ASSIGNMENT ( #64, #109, ( #38 ) ) ;
#108 = MANIFOLD_SOLID_BREP ( 'Corps-Déplacer/Copier1[2]', #32 ) ;
#109 = DATE_TIME_ROLE ( 'classification_date' ) ;
#110 = APPROVAL_STATUS ( 'not_yet_approved' ) ;
#111 = DESIGN_CONTEXT ( 'detailed design', #34, 'design' ) ;
#112 = AXIS2_PLACEMENT_3D ( 'NONE', #188, #51, #157 ) ;
#113 = EDGE_LOOP ( 'NONE', ( #47 ) ) ;
#114 = PERSON_AND_ORGANIZATION_ROLE ( 'design_owner' ) ;
#115 = ADVANCED_FACE ( 'NONE', ( #192, #4 ), #91, .T. ) ;
#116 = DIRECTION ( 'NONE',  ( -3.491481338843133355E-15, 1.224646799147353207E-16, -1.000000000000000000 ) ) ;
#117 = VERTEX_POINT ( 'NONE', #122 ) ;
#118 = DIRECTION ( 'NONE',  ( 4.275831445896959482E-31, 1.000000000000000000, 1.224646799147352961E-16 ) ) ;
#119 = DATE_AND_TIME ( #196, #18 ) ;
#120 = ORIENTED_EDGE ( 'NONE', *, *, #126, .F. ) ;
#121 = PRODUCT_RELATED_PRODUCT_CATEGORY ( 'detail', '', ( #71 ) ) ;
#122 = CARTESIAN_POINT ( 'NONE',  ( -1.656143848085266214E-31, 0.03999999999999979267, -4.743384504624081899E-17 ) ) ;
#123 = PRODUCT_DEFINITION_FORMATION_WITH_SPECIFIED_SOURCE ( 'ANY', '', #71, .NOT_KNOWN. ) ;
#124 = DATE_TIME_ROLE ( 'creation_date' ) ;
#125 = AXIS2_PLACEMENT_3D ( 'NONE', #37, #148, #12 ) ;
#126 = EDGE_CURVE ( 'NONE', #150, #150, #99, .T. ) ;
#127 = APPROVAL_PERSON_ORGANIZATION ( #81, #155, #68 ) ;
#128 = DIRECTION ( 'NONE',  ( 3.491481338843133355E-15, -1.224646799147353207E-16, 1.000000000000000000 ) ) ;
#129 = DIRECTION ( 'NONE',  ( 0.0000000000000000000, 1.000000000000000000, 0.0000000000000000000 ) ) ;
#130 = EDGE_CURVE ( 'NONE', #132, #132, #182, .T. ) ;
#131 = EDGE_LOOP ( 'NONE', ( #120 ) ) ;
#132 = VERTEX_POINT ( 'NONE', #193 ) ;
#133 = ORIENTED_EDGE ( 'NONE', *, *, #126, .T. ) ;
#134 = DIRECTION ( 'NONE',  ( 1.000000000000000000, 0.0000000000000000000, 0.0000000000000000000 ) ) ;
#135 = FACE_OUTER_BOUND ( 'NONE', #174, .T. ) ;
#136 =( NAMED_UNIT ( * ) PLANE_ANGLE_UNIT ( ) SI_UNIT ( $, .RADIAN. ) );
#137 = DIRECTION ( 'NONE',  ( -4.275831445896958607E-31, -1.000000000000000000, -1.224646799147353207E-16 ) ) ;
#138 = APPROVAL_STATUS ( 'not_yet_approved' ) ;
#139 = PERSON_AND_ORGANIZATION ( #92, #89 ) ;
#140 = APPROVAL_DATE_TIME ( #168, #155 ) ;
#141 = AXIS2_PLACEMENT_3D ( 'NONE', #74, #41, #54 ) ;
#142 = EDGE_LOOP ( 'NONE', ( #22 ) ) ;
#143 = CARTESIAN_POINT ( 'NONE',  ( 0.0000000000000000000, 0.0000000000000000000, 0.0000000000000000000 ) ) ;
#144 = FACE_OUTER_BOUND ( 'NONE', #27, .T. ) ;
#145 = APPROVAL_ROLE ( '' ) ;
#146 = EDGE_LOOP ( 'NONE', ( #105 ) ) ;
#147 = CC_DESIGN_PERSON_AND_ORGANIZATION_ASSIGNMENT ( #53, #114, ( #71 ) ) ;
#148 = DIRECTION ( 'NONE',  ( -3.491481338843133355E-15, 1.224646799147353207E-16, -1.000000000000000000 ) ) ;
#149 = CARTESIAN_POINT ( 'NONE',  ( 1.316288464743861212E-13, -4.616918432785521081E-15, 37.69999999999999574 ) ) ;
#150 = VERTEX_POINT ( 'NONE', #94 ) ;
#151 = AXIS2_PLACEMENT_3D ( 'NONE', #197, #116, #118 ) ;
#152 = LOCAL_TIME ( 11, 21, 37.00000000000000000, #48 ) ;
#153 = ADVANCED_FACE ( 'NONE', ( #189 ), #52, .F. ) ;
#154 = DATE_AND_TIME ( #31, #10 ) ;
#155 = APPROVAL ( #138, 'UNSPECIFIED' ) ;
#156 = CC_DESIGN_DATE_AND_TIME_ASSIGNMENT ( #119, #124, ( #7 ) ) ;
#157 = DIRECTION ( 'NONE',  ( 0.0000000000000000000, 1.000000000000000000, 0.0000000000000000000 ) ) ;
#158 = PERSON_AND_ORGANIZATION ( #92, #89 ) ;
#159 = AXIS2_PLACEMENT_3D ( 'NONE', #103, #14, #137 ) ;
#160 = DIRECTION ( 'NONE',  ( 0.0000000000000000000, -1.000000000000000000, 0.0000000000000000000 ) ) ;
#161 = CC_DESIGN_APPROVAL ( #155, ( #123 ) ) ;
#162 = PLANE ( 'NONE',  #172 ) ;
#163 = ORIENTED_EDGE ( 'NONE', *, *, #173, .T. ) ;
#164 = CARTESIAN_POINT ( 'NONE',  ( 1.326762908760390423E-13, 1.199999999999995515, 38.00000000000000000 ) ) ;
#165 =( NAMED_UNIT ( * ) SI_UNIT ( $, .STERADIAN. ) SOLID_ANGLE_UNIT ( ) );
#166 = AXIS2_PLACEMENT_3D ( 'NONE', #143, #5, #134 ) ;
#167 = PERSON_AND_ORGANIZATION_ROLE ( 'creator' ) ;
#168 = DATE_AND_TIME ( #82, #98 ) ;
#170 = CLOSED_SHELL ( 'NONE', ( #80, #115, #184, #199 ) ) ;
#169 = PERSON_AND_ORGANIZATION ( #92, #89 ) ;
#171 = PERSON_AND_ORGANIZATION_ROLE ( 'classification_officer' ) ;
#172 = AXIS2_PLACEMENT_3D ( 'NONE', #43, #78, #26 ) ;
#173 = EDGE_CURVE ( 'NONE', #15, #15, #65, .T. ) ;
#174 = EDGE_LOOP ( 'NONE', ( #93 ) ) ;
#175 = PERSON_AND_ORGANIZATION ( #92, #89 ) ;
#176 = MANIFOLD_SOLID_BREP ( 'Corps-Déplacer/Copier1[1]', #170 ) ;
#177 = PLANE ( 'NONE',  #46 ) ;
#178 = FACE_OUTER_BOUND ( 'NONE', #88, .T. ) ;
#179 = CIRCLE ( 'NONE', #2, 1.200000000000000178 ) ;
#180 = CC_DESIGN_PERSON_AND_ORGANIZATION_ASSIGNMENT ( #169, #167, ( #123 ) ) ;
#181 = VERTEX_POINT ( 'NONE', #164 ) ;
#182 = CIRCLE ( 'NONE', #84, 1.500000000000000222 ) ;
#183 = APPROVAL_ROLE ( '' ) ;
#184 = ADVANCED_FACE ( 'NONE', ( #60, #200 ), #95, .T. ) ;
#185 = AXIS2_PLACEMENT_3D ( 'NONE', #86, #3, #21 ) ;
#186 = CONICAL_SURFACE ( 'NONE', #16, 1.500000000000000222, 0.5235987755982928205 ) ;
#187 = EDGE_CURVE ( 'NONE', #181, #181, #179, .T. ) ;
#188 = CARTESIAN_POINT ( 'NONE',  ( 8.829237685930300011E-15, -3.096879697076772180E-16, 2.528794179050597002 ) ) ;
#189 = FACE_OUTER_BOUND ( 'NONE', #146, .T. ) ;
#190 = DIRECTION ( 'NONE',  ( -3.491481338843133355E-15, 1.224646799147353207E-16, -1.000000000000000000 ) ) ;
#191 =( GEOMETRIC_REPRESENTATION_CONTEXT ( 3 ) GLOBAL_UNCERTAINTY_ASSIGNED_CONTEXT ( ( #1 ) ) GLOBAL_UNIT_ASSIGNED_CONTEXT ( ( #61, #136, #165 ) ) REPRESENTATION_CONTEXT ( 'NONE', 'WORKASPACE' ) );
#192 = FACE_OUTER_BOUND ( 'NONE', #56, .T. ) ;
#193 = CARTESIAN_POINT ( 'NONE',  ( 8.829237685930300011E-15, 1.500000000000000000, 2.528794179050597002 ) ) ;
#194 = APPROVAL ( #102, 'UNSPECIFIED' ) ;
#195 = EDGE_LOOP ( 'NONE', ( #73 ) ) ;
#196 = CALENDAR_DATE ( 2021, 22, 11 ) ;
#197 = CARTESIAN_POINT ( 'NONE',  ( -1.827177105921143709E-31, 6.408874563777776121E-33, -5.233243224283020864E-17 ) ) ;
#198 = DIRECTION ( 'NONE',  ( 0.0000000000000000000, 1.000000000000000000, 0.0000000000000000000 ) ) ;
#199 = ADVANCED_FACE ( 'NONE', ( #58 ), #162, .F. ) ;
#200 = FACE_OUTER_BOUND ( 'NONE', #77, .T. ) ;
#201 = SECURITY_CLASSIFICATION_LEVEL ( 'unclassified' ) ;
#202 = SHAPE_DEFINITION_REPRESENTATION ( #35, #70 ) ;
#203 = APPROVAL ( #110, 'UNSPECIFIED' ) ;
ENDSEC;
END-ISO-10303-21;
