ISO-10303-21;
HEADER;
FILE_DESCRIPTION (( 'STEP AP203' ),
    '1' );
FILE_NAME ('326678.step',
    '2021-11-22T10:21:36',
    ( '' ),
    ( '' ),
    'SwSTEP 2.0',
    'SolidWorks 2019',
    '' );
FILE_SCHEMA (( 'CONFIG_CONTROL_DESIGN' ));
ENDSEC;

DATA;
#1 = DIRECTION ( 'NONE',  ( 3.491481338843133355E-15, -1.224646799147353207E-16, 1.000000000000000000 ) ) ;
#2 = CARTESIAN_POINT ( 'NONE',  ( 1.316288464743861212E-13, -4.616918432785521081E-15, 37.69999999999999574 ) ) ;
#3 = APPROVAL_DATE_TIME ( #57, #63 ) ;
#4 = EDGE_LOOP ( 'NONE', ( #74 ) ) ;
#5 = APPROVAL ( #64, 'UNSPECIFIED' ) ;
#6 = APPLICATION_PROTOCOL_DEFINITION ( 'international standard', 'config_control_design', 1994, #70 ) ;
#7 = SECURITY_CLASSIFICATION ( '', '', #161 ) ;
#8 = ORIENTED_EDGE ( 'NONE', *, *, #127, .F. ) ;
#9 = CARTESIAN_POINT ( 'NONE',  ( 1.326762908760390423E-13, -4.653657836759941941E-15, 38.00000000000000000 ) ) ;
#10 = FACE_OUTER_BOUND ( 'NONE', #129, .T. ) ;
#11 = CARTESIAN_POINT ( 'NONE',  ( -1.496541006063940395E-32, 5.249159239316519417E-34, -4.286263797015749845E-18 ) ) ;
#12 = CARTESIAN_POINT ( 'NONE',  ( 8.859474801293076632E-15, -7.336302957166565627E-16, 2.537454433088441430 ) ) ;
#13 = PERSON_AND_ORGANIZATION ( #159, #25 ) ;
#14 = LOCAL_TIME ( 11, 21, 36.00000000000000000, #142 ) ;
#15 = DATE_TIME_ROLE ( 'classification_date' ) ;
#16 = COORDINATED_UNIVERSAL_TIME_OFFSET ( 1, 0, .AHEAD. ) ;
#17 = SHAPE_DEFINITION_REPRESENTATION ( #201, #99 ) ;
#18 = DESIGN_CONTEXT ( 'detailed design', #126, 'design' ) ;
#19 = APPROVAL_PERSON_ORGANIZATION ( #162, #35, #65 ) ;
#20 = DIRECTION ( 'NONE',  ( -3.491481338843133355E-15, 1.224646799147353207E-16, -1.000000000000000000 ) ) ;
#21 = CC_DESIGN_PERSON_AND_ORGANIZATION_ASSIGNMENT ( #200, #198, ( #177 ) ) ;
#22 = FACE_OUTER_BOUND ( 'NONE', #37, .T. ) ;
#23 = CARTESIAN_POINT ( 'NONE',  ( 8.859474801293076632E-15, -3.107485449464022129E-16, 2.537454433088441874 ) ) ;
#24 = DIRECTION ( 'NONE',  ( 1.000000000000000000, 0.0000000000000000000, 0.0000000000000000000 ) ) ;
#25 = ORGANIZATION ( 'UNSPECIFIED', 'UNSPECIFIED', '' ) ;
#26 = EDGE_LOOP ( 'NONE', ( #153 ) ) ;
#27 = DATE_AND_TIME ( #176, #14 ) ;
#28 = PLANE ( 'NONE',  #158 ) ;
#29 =( NAMED_UNIT ( * ) PLANE_ANGLE_UNIT ( ) SI_UNIT ( $, .RADIAN. ) );
#30 = DATE_TIME_ROLE ( 'creation_date' ) ;
#31 = AXIS2_PLACEMENT_3D ( 'NONE', #119, #156, #155 ) ;
#32 = PRODUCT ( '326678', '326678', '', ( #90 ) ) ;
#33 = APPROVAL_PERSON_ORGANIZATION ( #150, #5, #44 ) ;
#34 = CARTESIAN_POINT ( 'NONE',  ( 1.316288464743861212E-13, -4.616918432785521081E-15, 37.69999999999999574 ) ) ;
#35 = APPROVAL ( #124, 'UNSPECIFIED' ) ;
#36 = PERSON_AND_ORGANIZATION_ROLE ( 'design_owner' ) ;
#37 = EDGE_LOOP ( 'NONE', ( #128 ) ) ;
#38 = CARTESIAN_POINT ( 'NONE',  ( 1.326762908760390423E-13, 1.199999999999995515, 38.00000000000000000 ) ) ;
#39 = AXIS2_PLACEMENT_3D ( 'NONE', #2, #170, #54 ) ;
#40 = ORIENTED_EDGE ( 'NONE', *, *, #77, .T. ) ;
#41 = APPLICATION_PROTOCOL_DEFINITION ( 'international standard', 'config_control_design', 1994, #126 ) ;
#42 = PERSON_AND_ORGANIZATION_ROLE ( 'creator' ) ;
#43 = AXIS2_PLACEMENT_3D ( 'NONE', #87, #98, #83 ) ;
#44 = APPROVAL_ROLE ( '' ) ;
#45 = MANIFOLD_SOLID_BREP ( 'Corps-Déplacer/Copier1[1]', #165 ) ;
#46 = PERSON_AND_ORGANIZATION ( #159, #25 ) ;
#47 = LOCAL_TIME ( 11, 21, 36.00000000000000000, #16 ) ;
#48 = UNCERTAINTY_MEASURE_WITH_UNIT (LENGTH_MEASURE( 1.000000000000000082E-05 ), #173, 'distance_accuracy_value', 'NONE');
#49 = DIRECTION ( 'NONE',  ( 3.491481338843133355E-15, -1.224646799147353207E-16, 1.000000000000000000 ) ) ;
#50 = FACE_OUTER_BOUND ( 'NONE', #131, .T. ) ;
#51 = CONICAL_SURFACE ( 'NONE', #39, 1.500000000000000000, 0.7853981633974453924 ) ;
#52 = CARTESIAN_POINT ( 'NONE',  ( 8.859474801293076632E-15, -7.336302957166565627E-16, 2.537454433088441430 ) ) ;
#53 = PRODUCT_DEFINITION ( 'UNKNOWN', '', #177, #18 ) ;
#54 = DIRECTION ( 'NONE',  ( 0.0000000000000000000, 1.000000000000000000, 0.0000000000000000000 ) ) ;
#55 = CARTESIAN_POINT ( 'NONE',  ( 0.0000000000000000000, 0.0000000000000000000, 0.0000000000000000000 ) ) ;
#56 = EDGE_LOOP ( 'NONE', ( #8 ) ) ;
#57 = DATE_AND_TIME ( #157, #143 ) ;
#58 = CONICAL_SURFACE ( 'NONE', #151, 1.500000000000000000, 0.5235987755982925984 ) ;
#59 = DIRECTION ( 'NONE',  ( 0.0000000000000000000, -1.000000000000000000, 0.0000000000000000000 ) ) ;
#60 = CARTESIAN_POINT ( 'NONE',  ( 0.0000000000000000000, 0.03500000000000011435, 0.0000000000000000000 ) ) ;
#61 = ADVANCED_FACE ( 'NONE', ( #146, #72 ), #51, .T. ) ;
#62 = LOCAL_TIME ( 11, 21, 36.00000000000000000, #160 ) ;
#63 = APPROVAL ( #105, 'UNSPECIFIED' ) ;
#64 = APPROVAL_STATUS ( 'not_yet_approved' ) ;
#65 = APPROVAL_ROLE ( '' ) ;
#66 = CLOSED_SHELL ( 'NONE', ( #114, #152, #167 ) ) ;
#67 = AXIS2_PLACEMENT_3D ( 'NONE', #55, #190, #24 ) ;
#68 = DIRECTION ( 'NONE',  ( -4.275831445896958607E-31, -1.000000000000000000, -1.224646799147353207E-16 ) ) ;
#69 = DIRECTION ( 'NONE',  ( -3.491481338843133355E-15, 1.224646799147353207E-16, -1.000000000000000000 ) ) ;
#70 = APPLICATION_CONTEXT ( 'configuration controlled 3d designs of mechanical parts and assemblies' ) ;
#71 = DIRECTION ( 'NONE',  ( 4.275831445896959482E-31, 1.000000000000000000, 1.224646799147353207E-16 ) ) ;
#72 = FACE_OUTER_BOUND ( 'NONE', #56, .T. ) ;
#73 = FACE_OUTER_BOUND ( 'NONE', #111, .T. ) ;
#74 = ORIENTED_EDGE ( 'NONE', *, *, #191, .T. ) ;
#75 = DIRECTION ( 'NONE',  ( 3.491481338843133355E-15, -1.224646799147353207E-16, 1.000000000000000000 ) ) ;
#76 = VERTEX_POINT ( 'NONE', #60 ) ;
#77 = EDGE_CURVE ( 'NONE', #148, #148, #139, .T. ) ;
#78 = PERSON_AND_ORGANIZATION_ROLE ( 'classification_officer' ) ;
#79 = CC_DESIGN_SECURITY_CLASSIFICATION ( #7, ( #177 ) ) ;
#80 = EDGE_CURVE ( 'NONE', #197, #197, #199, .T. ) ;
#81 = AXIS2_PLACEMENT_3D ( 'NONE', #88, #187, #71 ) ;
#82 = DIRECTION ( 'NONE',  ( 0.0000000000000000000, 1.000000000000000000, 0.0000000000000000000 ) ) ;
#83 = DIRECTION ( 'NONE',  ( 4.275831445896958607E-31, 1.000000000000000000, 1.224646799147353207E-16 ) ) ;
#84 = PERSON_AND_ORGANIZATION_ROLE ( 'creator' ) ;
#85 = AXIS2_PLACEMENT_3D ( 'NONE', #23, #69, #175 ) ;
#86 = DIRECTION ( 'NONE',  ( 0.0000000000000000000, 1.000000000000000000, 0.0000000000000000000 ) ) ;
#87 = CARTESIAN_POINT ( 'NONE',  ( 1.326762908760390423E-13, 8.998558695971078593E-33, 38.00000000000000000 ) ) ;
#88 = CARTESIAN_POINT ( 'NONE',  ( 0.0000000000000000000, 0.0000000000000000000, 0.0000000000000000000 ) ) ;
#89 = CARTESIAN_POINT ( 'NONE',  ( -7.482705030319701975E-33, 2.624579619658259709E-34, -2.143131898507874923E-18 ) ) ;
#90 = MECHANICAL_CONTEXT ( 'NONE', #70, 'mechanical' ) ;
#91 = DATE_AND_TIME ( #107, #47 ) ;
#92 = DATE_AND_TIME ( #106, #122 ) ;
#93 = ADVANCED_FACE ( 'NONE', ( #22 ), #186, .F. ) ;
#94 = COORDINATED_UNIVERSAL_TIME_OFFSET ( 1, 0, .AHEAD. ) ;
#95 = CC_DESIGN_APPROVAL ( #63, ( #53 ) ) ;
#96 = PERSON_AND_ORGANIZATION ( #159, #25 ) ;
#97 = CC_DESIGN_APPROVAL ( #35, ( #177 ) ) ;
#98 = DIRECTION ( 'NONE',  ( -3.491481338843133355E-15, 1.224646799147353207E-16, -1.000000000000000000 ) ) ;
#99 = ADVANCED_BREP_SHAPE_REPRESENTATION ( '326678', ( #45, #174, #67 ), #194 ) ;
#100 = PERSON_AND_ORGANIZATION ( #159, #25 ) ;
#101 = DIRECTION ( 'NONE',  ( 4.275831445896958607E-31, 1.000000000000000000, 1.224646799147353207E-16 ) ) ;
#102 = ORIENTED_EDGE ( 'NONE', *, *, #80, .F. ) ;
#103 = CC_DESIGN_PERSON_AND_ORGANIZATION_ASSIGNMENT ( #46, #42, ( #177 ) ) ;
#104 = VERTEX_POINT ( 'NONE', #38 ) ;
#105 = APPROVAL_STATUS ( 'not_yet_approved' ) ;
#106 = CALENDAR_DATE ( 2021, 22, 11 ) ;
#107 = CALENDAR_DATE ( 2021, 22, 11 ) ;
#108 = APPROVAL_PERSON_ORGANIZATION ( #137, #63, #193 ) ;
#109 = CIRCLE ( 'NONE', #169, 1.500000000000000000 ) ;
#110 = CC_DESIGN_PERSON_AND_ORGANIZATION_ASSIGNMENT ( #96, #78, ( #7 ) ) ;
#111 = EDGE_LOOP ( 'NONE', ( #189 ) ) ;
#112 = CARTESIAN_POINT ( 'NONE',  ( 8.859474801293076632E-15, -3.107485449464022129E-16, 2.537454433088441874 ) ) ;
#113 = CARTESIAN_POINT ( 'NONE',  ( 1.316288464743861212E-13, 1.499999999999995559, 37.69999999999999574 ) ) ;
#114 = ADVANCED_FACE ( 'NONE', ( #10 ), #28, .F. ) ;
#115 = DIRECTION ( 'NONE',  ( 3.491481338843133355E-15, -1.224646799147353207E-16, 1.000000000000000000 ) ) ;
#116 = CYLINDRICAL_SURFACE ( 'NONE', #81, 1.500000000000000000 ) ;
#117 = EDGE_LOOP ( 'NONE', ( #102 ) ) ;
#118 = COORDINATED_UNIVERSAL_TIME_OFFSET ( 1, 0, .AHEAD. ) ;
#119 = CARTESIAN_POINT ( 'NONE',  ( 8.859474801293076632E-15, -3.107485449464022129E-16, 2.537454433088441874 ) ) ;
#120 = CIRCLE ( 'NONE', #164, 0.03500000000000011435 ) ;
#121 = DIRECTION ( 'NONE',  ( -3.491481338843133355E-15, 1.224646799147353207E-16, -1.000000000000000000 ) ) ;
#123 = APPROVAL_DATE_TIME ( #91, #35 ) ;
#122 = LOCAL_TIME ( 11, 21, 36.00000000000000000, #94 ) ;
#124 = APPROVAL_STATUS ( 'not_yet_approved' ) ;
#125 = ADVANCED_FACE ( 'NONE', ( #141 ), #185, .F. ) ;
#126 = APPLICATION_CONTEXT ( 'configuration controlled 3d designs of mechanical parts and assemblies' ) ;
#127 = EDGE_CURVE ( 'NONE', #154, #154, #109, .T. ) ;
#128 = ORIENTED_EDGE ( 'NONE', *, *, #191, .F. ) ;
#129 = EDGE_LOOP ( 'NONE', ( #130 ) ) ;
#130 = ORIENTED_EDGE ( 'NONE', *, *, #180, .T. ) ;
#131 = EDGE_LOOP ( 'NONE', ( #178 ) ) ;
#132 = FACE_OUTER_BOUND ( 'NONE', #133, .T. ) ;
#133 = EDGE_LOOP ( 'NONE', ( #172 ) ) ;
#134 = CARTESIAN_POINT ( 'NONE',  ( 8.859474801293076632E-15, 1.499999999999999778, 2.537454433088441874 ) ) ;
#135 = FACE_OUTER_BOUND ( 'NONE', #117, .T. ) ;
#136 = CIRCLE ( 'NONE', #203, 1.200000000000000178 ) ;
#137 = PERSON_AND_ORGANIZATION ( #159, #25 ) ;
#138 = APPROVAL_DATE_TIME ( #163, #5 ) ;
#139 = CIRCLE ( 'NONE', #85, 1.500000000000000000 ) ;
#140 = FACE_BOUND ( 'NONE', #26, .T. ) ;
#141 = FACE_OUTER_BOUND ( 'NONE', #144, .T. ) ;
#142 = COORDINATED_UNIVERSAL_TIME_OFFSET ( 1, 0, .AHEAD. ) ;
#143 = LOCAL_TIME ( 11, 21, 36.00000000000000000, #118 ) ;
#144 = EDGE_LOOP ( 'NONE', ( #40 ) ) ;
#145 = CC_DESIGN_DATE_AND_TIME_ASSIGNMENT ( #27, #30, ( #53 ) ) ;
#146 = FACE_BOUND ( 'NONE', #4, .T. ) ;
#147 = PLANE ( 'NONE',  #181 ) ;
#148 = VERTEX_POINT ( 'NONE', #192 ) ;
#149 = CC_DESIGN_PERSON_AND_ORGANIZATION_ASSIGNMENT ( #13, #36, ( #32 ) ) ;
#150 = PERSON_AND_ORGANIZATION ( #159, #25 ) ;
#151 = AXIS2_PLACEMENT_3D ( 'NONE', #112, #115, #59 ) ;
#152 = ADVANCED_FACE ( 'NONE', ( #140, #50 ), #58, .T. ) ;
#153 = ORIENTED_EDGE ( 'NONE', *, *, #180, .F. ) ;
#154 = VERTEX_POINT ( 'NONE', #113 ) ;
#155 = DIRECTION ( 'NONE',  ( 0.0000000000000000000, 1.000000000000000000, 0.0000000000000000000 ) ) ;
#156 = DIRECTION ( 'NONE',  ( -3.491481338843133355E-15, 1.224646799147353207E-16, -1.000000000000000000 ) ) ;
#157 = CALENDAR_DATE ( 2021, 22, 11 ) ;
#158 = AXIS2_PLACEMENT_3D ( 'NONE', #89, #1, #68 ) ;
#159 = PERSON ( 'UNSPECIFIED', 'UNSPECIFIED', 'UNSPECIFIED', ('UNSPECIFIED'), ('UNSPECIFIED'), ('UNSPECIFIED') ) ;
#160 = COORDINATED_UNIVERSAL_TIME_OFFSET ( 1, 0, .AHEAD. ) ;
#161 = SECURITY_CLASSIFICATION_LEVEL ( 'unclassified' ) ;
#162 = PERSON_AND_ORGANIZATION ( #159, #25 ) ;
#164 = AXIS2_PLACEMENT_3D ( 'NONE', #11, #121, #101 ) ;
#163 = DATE_AND_TIME ( #183, #62 ) ;
#165 = CLOSED_SHELL ( 'NONE', ( #125, #196, #61, #93 ) ) ;
#166 = CC_DESIGN_APPROVAL ( #5, ( #7 ) ) ;
#167 = ADVANCED_FACE ( 'NONE', ( #135 ), #147, .T. ) ;
#168 = DIRECTION ( 'NONE',  ( -4.275831445896958607E-31, -1.000000000000000000, -1.224646799147353207E-16 ) ) ;
#169 = AXIS2_PLACEMENT_3D ( 'NONE', #34, #20, #82 ) ;
#170 = DIRECTION ( 'NONE',  ( -3.491481338843133355E-15, 1.224646799147353207E-16, -1.000000000000000000 ) ) ;
#171 = DIRECTION ( 'NONE',  ( -3.491481338843133355E-15, 1.224646799147353207E-16, -1.000000000000000000 ) ) ;
#172 = ORIENTED_EDGE ( 'NONE', *, *, #77, .F. ) ;
#173 =( LENGTH_UNIT ( ) NAMED_UNIT ( * ) SI_UNIT ( .MILLI., .METRE. ) );
#174 = MANIFOLD_SOLID_BREP ( 'Corps-Déplacer/Copier1[2]', #66 ) ;
#175 = DIRECTION ( 'NONE',  ( 0.0000000000000000000, 1.000000000000000000, 0.0000000000000000000 ) ) ;
#176 = CALENDAR_DATE ( 2021, 22, 11 ) ;
#177 = PRODUCT_DEFINITION_FORMATION_WITH_SPECIFIED_SOURCE ( 'ANY', '', #32, .NOT_KNOWN. ) ;
#178 = ORIENTED_EDGE ( 'NONE', *, *, #80, .T. ) ;
#179 =( NAMED_UNIT ( * ) SI_UNIT ( $, .STERADIAN. ) SOLID_ANGLE_UNIT ( ) );
#180 = EDGE_CURVE ( 'NONE', #76, #76, #120, .T. ) ;
#181 = AXIS2_PLACEMENT_3D ( 'NONE', #12, #75, #195 ) ;
#182 = CC_DESIGN_PERSON_AND_ORGANIZATION_ASSIGNMENT ( #100, #84, ( #53 ) ) ;
#183 = CALENDAR_DATE ( 2021, 22, 11 ) ;
#184 = PRODUCT_RELATED_PRODUCT_CATEGORY ( 'detail', '', ( #32 ) ) ;
#185 = PLANE ( 'NONE',  #188 ) ;
#186 = PLANE ( 'NONE',  #43 ) ;
#187 = DIRECTION ( 'NONE',  ( -3.491481338843133355E-15, 1.224646799147353207E-16, -1.000000000000000000 ) ) ;
#188 = AXIS2_PLACEMENT_3D ( 'NONE', #52, #49, #168 ) ;
#189 = ORIENTED_EDGE ( 'NONE', *, *, #127, .T. ) ;
#190 = DIRECTION ( 'NONE',  ( 0.0000000000000000000, 0.0000000000000000000, 1.000000000000000000 ) ) ;
#191 = EDGE_CURVE ( 'NONE', #104, #104, #136, .T. ) ;
#192 = CARTESIAN_POINT ( 'NONE',  ( 8.859474801293076632E-15, 1.499999999999999778, 2.537454433088441874 ) ) ;
#193 = APPROVAL_ROLE ( '' ) ;
#194 =( GEOMETRIC_REPRESENTATION_CONTEXT ( 3 ) GLOBAL_UNCERTAINTY_ASSIGNED_CONTEXT ( ( #48 ) ) GLOBAL_UNIT_ASSIGNED_CONTEXT ( ( #173, #29, #179 ) ) REPRESENTATION_CONTEXT ( 'NONE', 'WORKASPACE' ) );
#195 = DIRECTION ( 'NONE',  ( -4.275831445896958607E-31, -1.000000000000000000, -1.224646799147353207E-16 ) ) ;
#196 = ADVANCED_FACE ( 'NONE', ( #73, #132 ), #116, .T. ) ;
#197 = VERTEX_POINT ( 'NONE', #134 ) ;
#198 = PERSON_AND_ORGANIZATION_ROLE ( 'design_supplier' ) ;
#199 = CIRCLE ( 'NONE', #31, 1.500000000000000000 ) ;
#200 = PERSON_AND_ORGANIZATION ( #159, #25 ) ;
#201 = PRODUCT_DEFINITION_SHAPE ( 'NONE', 'NONE',  #53 ) ;
#202 = CC_DESIGN_DATE_AND_TIME_ASSIGNMENT ( #92, #15, ( #7 ) ) ;
#203 = AXIS2_PLACEMENT_3D ( 'NONE', #9, #171, #86 ) ;
ENDSEC;
END-ISO-10303-21;
