ISO-10303-21;
HEADER;
FILE_DESCRIPTION (( 'STEP AP203' ),
    '1' );
FILE_NAME ('326677.step',
    '2021-11-22T10:21:36',
    ( '' ),
    ( '' ),
    'SwSTEP 2.0',
    'SolidWorks 2019',
    '' );
FILE_SCHEMA (( 'CONFIG_CONTROL_DESIGN' ));
ENDSEC;

DATA;
#1 = DIRECTION ( 'NONE',  ( 0.0000000000000000000, -1.000000000000000000, 0.0000000000000000000 ) ) ;
#2 = FACE_OUTER_BOUND ( 'NONE', #85, .T. ) ;
#3 = APPROVAL_STATUS ( 'not_yet_approved' ) ;
#4 = DATE_TIME_ROLE ( 'creation_date' ) ;
#5 = APPROVAL_ROLE ( '' ) ;
#6 = CIRCLE ( 'NONE', #62, 1.500000000000000000 ) ;
#7 = ORIENTED_EDGE ( 'NONE', *, *, #197, .F. ) ;
#8 = EDGE_LOOP ( 'NONE', ( #180 ) ) ;
#9 = VERTEX_POINT ( 'NONE', #138 ) ;
#10 = AXIS2_PLACEMENT_3D ( 'NONE', #188, #186, #41 ) ;
#11 = VERTEX_POINT ( 'NONE', #63 ) ;
#12 = LOCAL_TIME ( 11, 21, 36.00000000000000000, #23 ) ;
#13 = DIRECTION ( 'NONE',  ( 3.491481338843133355E-15, -1.224646799147353207E-16, 1.000000000000000000 ) ) ;
#14 = FACE_OUTER_BOUND ( 'NONE', #38, .T. ) ;
#15 = DIRECTION ( 'NONE',  ( -3.491481338843133355E-15, 1.224646799147353207E-16, -1.000000000000000000 ) ) ;
#16 = CIRCLE ( 'NONE', #39, 0.03000000000000017236 ) ;
#17 =( GEOMETRIC_REPRESENTATION_CONTEXT ( 3 ) GLOBAL_UNCERTAINTY_ASSIGNED_CONTEXT ( ( #40 ) ) GLOBAL_UNIT_ASSIGNED_CONTEXT ( ( #168, #142, #121 ) ) REPRESENTATION_CONTEXT ( 'NONE', 'WORKASPACE' ) );
#18 = PERSON_AND_ORGANIZATION ( #181, #70 ) ;
#19 = PERSON_AND_ORGANIZATION ( #181, #70 ) ;
#20 = CONICAL_SURFACE ( 'NONE', #139, 1.500000000000000000, 0.7853981633974453924 ) ;
#21 = LOCAL_TIME ( 11, 21, 36.00000000000000000, #84 ) ;
#22 = CARTESIAN_POINT ( 'NONE',  ( 0.0000000000000000000, 0.0000000000000000000, 0.0000000000000000000 ) ) ;
#23 = COORDINATED_UNIVERSAL_TIME_OFFSET ( 1, 0, .AHEAD. ) ;
#24 = CC_DESIGN_APPROVAL ( #107, ( #200 ) ) ;
#25 = CIRCLE ( 'NONE', #69, 1.500000000000000000 ) ;
#26 = ORIENTED_EDGE ( 'NONE', *, *, #66, .T. ) ;
#27 = ADVANCED_FACE ( 'NONE', ( #135, #86 ), #20, .T. ) ;
#28 = FACE_OUTER_BOUND ( 'NONE', #137, .T. ) ;
#29 = APPLICATION_CONTEXT ( 'configuration controlled 3d designs of mechanical parts and assemblies' ) ;
#30 = PLANE ( 'NONE',  #95 ) ;
#31 = FACE_BOUND ( 'NONE', #8, .T. ) ;
#32 = PLANE ( 'NONE',  #183 ) ;
#33 = CC_DESIGN_DATE_AND_TIME_ASSIGNMENT ( #148, #4, ( #147 ) ) ;
#34 = SHAPE_DEFINITION_REPRESENTATION ( #166, #132 ) ;
#35 = EDGE_LOOP ( 'NONE', ( #73 ) ) ;
#36 = EDGE_CURVE ( 'NONE', #203, #203, #199, .T. ) ;
#37 = ORIENTED_EDGE ( 'NONE', *, *, #197, .T. ) ;
#38 = EDGE_LOOP ( 'NONE', ( #59 ) ) ;
#39 = AXIS2_PLACEMENT_3D ( 'NONE', #119, #170, #123 ) ;
#40 = UNCERTAINTY_MEASURE_WITH_UNIT (LENGTH_MEASURE( 1.000000000000000082E-05 ), #168, 'distance_accuracy_value', 'NONE');
#41 = DIRECTION ( 'NONE',  ( 0.0000000000000000000, 1.000000000000000000, 0.0000000000000000000 ) ) ;
#42 = CARTESIAN_POINT ( 'NONE',  ( 8.889711916655850098E-15, -3.118091201851270599E-16, 2.546114687126285858 ) ) ;
#43 = AXIS2_PLACEMENT_3D ( 'NONE', #88, #104, #115 ) ;
#44 = CARTESIAN_POINT ( 'NONE',  ( 1.326762908760390423E-13, 1.199999999999995515, 38.00000000000000000 ) ) ;
#45 = DIRECTION ( 'NONE',  ( -4.275831445896958607E-31, -1.000000000000000000, -1.224646799147353207E-16 ) ) ;
#46 = DATE_AND_TIME ( #100, #167 ) ;
#47 = PERSON_AND_ORGANIZATION ( #181, #70 ) ;
#48 = PERSON_AND_ORGANIZATION_ROLE ( 'classification_officer' ) ;
#49 = CC_DESIGN_PERSON_AND_ORGANIZATION_ASSIGNMENT ( #160, #83, ( #60 ) ) ;
#50 = PERSON_AND_ORGANIZATION ( #181, #70 ) ;
#51 = DATE_AND_TIME ( #112, #21 ) ;
#52 = LOCAL_TIME ( 11, 21, 36.00000000000000000, #111 ) ;
#53 = EDGE_LOOP ( 'NONE', ( #178 ) ) ;
#54 = APPROVAL ( #3, 'UNSPECIFIED' ) ;
#55 = DIRECTION ( 'NONE',  ( 0.0000000000000000000, 1.000000000000000000, 0.0000000000000000000 ) ) ;
#56 = CLOSED_SHELL ( 'NONE', ( #122, #58, #27, #182 ) ) ;
#57 = CARTESIAN_POINT ( 'NONE',  ( 0.0000000000000000000, 0.0000000000000000000, 0.0000000000000000000 ) ) ;
#58 = ADVANCED_FACE ( 'NONE', ( #164, #150 ), #165, .T. ) ;
#59 = ORIENTED_EDGE ( 'NONE', *, *, #36, .F. ) ;
#60 = PRODUCT ( '326677', '326677', '', ( #194 ) ) ;
#61 = CARTESIAN_POINT ( 'NONE',  ( 5.914799457447381976E-33, 0.03000000000000017236, 1.694065894508600678E-18 ) ) ;
#62 = AXIS2_PLACEMENT_3D ( 'NONE', #42, #191, #75 ) ;
#63 = CARTESIAN_POINT ( 'NONE',  ( 1.316288464743861212E-13, 1.499999999999995559, 37.69999999999999574 ) ) ;
#64 = CLOSED_SHELL ( 'NONE', ( #171, #87, #157 ) ) ;
#65 = CARTESIAN_POINT ( 'NONE',  ( 1.326762908760390423E-13, 8.998558695971078593E-33, 38.00000000000000000 ) ) ;
#66 = EDGE_CURVE ( 'NONE', #9, #9, #89, .T. ) ;
#67 = APPROVAL_ROLE ( '' ) ;
#68 = COORDINATED_UNIVERSAL_TIME_OFFSET ( 1, 0, .AHEAD. ) ;
#69 = AXIS2_PLACEMENT_3D ( 'NONE', #143, #155, #76 ) ;
#70 = ORGANIZATION ( 'UNSPECIFIED', 'UNSPECIFIED', '' ) ;
#71 = EDGE_CURVE ( 'NONE', #11, #11, #25, .T. ) ;
#72 = AXIS2_PLACEMENT_3D ( 'NONE', #57, #116, #105 ) ;
#73 = ORIENTED_EDGE ( 'NONE', *, *, #36, .T. ) ;
#74 = DIRECTION ( 'NONE',  ( 3.491481338843133355E-15, -1.224646799147353207E-16, 1.000000000000000000 ) ) ;
#75 = DIRECTION ( 'NONE',  ( 0.0000000000000000000, 1.000000000000000000, 0.0000000000000000000 ) ) ;
#76 = DIRECTION ( 'NONE',  ( 0.0000000000000000000, 1.000000000000000000, 0.0000000000000000000 ) ) ;
#77 = SECURITY_CLASSIFICATION ( '', '', #80 ) ;
#78 = DIRECTION ( 'NONE',  ( 4.275831445896958607E-31, 1.000000000000000000, 1.224646799147353207E-16 ) ) ;
#79 = CALENDAR_DATE ( 2021, 22, 11 ) ;
#80 = SECURITY_CLASSIFICATION_LEVEL ( 'unclassified' ) ;
#81 = APPROVAL_DATE_TIME ( #46, #195 ) ;
#82 = AXIS2_PLACEMENT_3D ( 'NONE', #22, #176, #192 ) ;
#83 = PERSON_AND_ORGANIZATION_ROLE ( 'design_owner' ) ;
#84 = COORDINATED_UNIVERSAL_TIME_OFFSET ( 1, 0, .AHEAD. ) ;
#85 = EDGE_LOOP ( 'NONE', ( #7 ) ) ;
#86 = FACE_OUTER_BOUND ( 'NONE', #161, .T. ) ;
#87 = ADVANCED_FACE ( 'NONE', ( #31, #28 ), #134, .T. ) ;
#88 = CARTESIAN_POINT ( 'NONE',  ( 1.326762908760390423E-13, -4.653657836759941941E-15, 38.00000000000000000 ) ) ;
#89 = CIRCLE ( 'NONE', #10, 1.500000000000000000 ) ;
#90 = ORIENTED_EDGE ( 'NONE', *, *, #71, .F. ) ;
#91 = CARTESIAN_POINT ( 'NONE',  ( 8.889711916655850098E-15, -7.361341533812183087E-16, 2.546114687126285858 ) ) ;
#92 = CARTESIAN_POINT ( 'NONE',  ( 8.889711916655850098E-15, 1.499999999999999778, 2.546114687126285858 ) ) ;
#93 = FACE_OUTER_BOUND ( 'NONE', #201, .T. ) ;
#94 = DIRECTION ( 'NONE',  ( 3.491481338843133355E-15, -1.224646799147353207E-16, 1.000000000000000000 ) ) ;
#95 = AXIS2_PLACEMENT_3D ( 'NONE', #65, #15, #78 ) ;
#96 = CC_DESIGN_SECURITY_CLASSIFICATION ( #77, ( #200 ) ) ;
#97 = APPLICATION_PROTOCOL_DEFINITION ( 'international standard', 'config_control_design', 1994, #187 ) ;
#98 = APPLICATION_PROTOCOL_DEFINITION ( 'international standard', 'config_control_design', 1994, #29 ) ;
#99 = PERSON_AND_ORGANIZATION_ROLE ( 'creator' ) ;
#100 = CALENDAR_DATE ( 2021, 22, 11 ) ;
#101 = EDGE_CURVE ( 'NONE', #144, #144, #16, .T. ) ;
#102 = ORIENTED_EDGE ( 'NONE', *, *, #71, .T. ) ;
#103 = CARTESIAN_POINT ( 'NONE',  ( 1.316288464743861212E-13, -4.616918432785521081E-15, 37.69999999999999574 ) ) ;
#104 = DIRECTION ( 'NONE',  ( -3.491481338843133355E-15, 1.224646799147353207E-16, -1.000000000000000000 ) ) ;
#105 = DIRECTION ( 'NONE',  ( 4.275831445896959482E-31, 1.000000000000000000, 1.224646799147353207E-16 ) ) ;
#106 = CARTESIAN_POINT ( 'NONE',  ( 8.889711916655850098E-15, -7.361341533812183087E-16, 2.546114687126285858 ) ) ;
#107 = APPROVAL ( #131, 'UNSPECIFIED' ) ;
#108 = FACE_OUTER_BOUND ( 'NONE', #117, .T. ) ;
#109 = CARTESIAN_POINT ( 'NONE',  ( -3.456347440121784513E-33, 1.212323486365471393E-34, -9.899372514667398486E-19 ) ) ;
#110 = CALENDAR_DATE ( 2021, 22, 11 ) ;
#111 = COORDINATED_UNIVERSAL_TIME_OFFSET ( 1, 0, .AHEAD. ) ;
#112 = CALENDAR_DATE ( 2021, 22, 11 ) ;
#113 = APPROVAL_ROLE ( '' ) ;
#114 = DATE_AND_TIME ( #110, #179 ) ;
#115 = DIRECTION ( 'NONE',  ( 0.0000000000000000000, 1.000000000000000000, 0.0000000000000000000 ) ) ;
#116 = DIRECTION ( 'NONE',  ( -3.491481338843133355E-15, 1.224646799147353207E-16, -1.000000000000000000 ) ) ;
#117 = EDGE_LOOP ( 'NONE', ( #152 ) ) ;
#118 = CC_DESIGN_PERSON_AND_ORGANIZATION_ASSIGNMENT ( #50, #193, ( #200 ) ) ;
#119 = CARTESIAN_POINT ( 'NONE',  ( -6.912694880243569027E-33, 2.424646972730942785E-34, -1.979874502933479697E-18 ) ) ;
#120 = DIRECTION ( 'NONE',  ( -4.275831445896958607E-31, -1.000000000000000000, -1.224646799147353207E-16 ) ) ;
#121 =( NAMED_UNIT ( * ) SI_UNIT ( $, .STERADIAN. ) SOLID_ANGLE_UNIT ( ) );
#122 = ADVANCED_FACE ( 'NONE', ( #93 ), #125, .F. ) ;
#123 = DIRECTION ( 'NONE',  ( 4.275831445896959482E-31, 1.000000000000000000, 1.224646799147353207E-16 ) ) ;
#124 = CC_DESIGN_APPROVAL ( #54, ( #77 ) ) ;
#125 = PLANE ( 'NONE',  #153 ) ;
#126 = APPROVAL_STATUS ( 'not_yet_approved' ) ;
#127 = CALENDAR_DATE ( 2021, 22, 11 ) ;
#128 = CC_DESIGN_DATE_AND_TIME_ASSIGNMENT ( #175, #173, ( #77 ) ) ;
#129 = AXIS2_PLACEMENT_3D ( 'NONE', #154, #13, #1 ) ;
#130 = APPROVAL_PERSON_ORGANIZATION ( #146, #54, #5 ) ;
#131 = APPROVAL_STATUS ( 'not_yet_approved' ) ;
#132 = ADVANCED_BREP_SHAPE_REPRESENTATION ( '326677', ( #133, #136, #82 ), #17 ) ;
#133 = MANIFOLD_SOLID_BREP ( 'Corps-Déplacer/Copier1[1]', #56 ) ;
#134 = CONICAL_SURFACE ( 'NONE', #129, 1.500000000000000000, 0.5235987755982927094 ) ;
#135 = FACE_BOUND ( 'NONE', #35, .T. ) ;
#136 = MANIFOLD_SOLID_BREP ( 'Corps-Déplacer/Copier1[2]', #64 ) ;
#137 = EDGE_LOOP ( 'NONE', ( #37 ) ) ;
#138 = CARTESIAN_POINT ( 'NONE',  ( 8.889711916655850098E-15, 1.499999999999999778, 2.546114687126285858 ) ) ;
#139 = AXIS2_PLACEMENT_3D ( 'NONE', #103, #198, #55 ) ;
#140 = CC_DESIGN_APPROVAL ( #195, ( #147 ) ) ;
#141 = PLANE ( 'NONE',  #156 ) ;
#142 =( NAMED_UNIT ( * ) PLANE_ANGLE_UNIT ( ) SI_UNIT ( $, .RADIAN. ) );
#143 = CARTESIAN_POINT ( 'NONE',  ( 1.316288464743861212E-13, -4.616918432785521081E-15, 37.69999999999999574 ) ) ;
#144 = VERTEX_POINT ( 'NONE', #61 ) ;
#145 = PERSON_AND_ORGANIZATION ( #181, #70 ) ;
#146 = PERSON_AND_ORGANIZATION ( #181, #70 ) ;
#147 = PRODUCT_DEFINITION ( 'UNKNOWN', '', #200, #189 ) ;
#148 = DATE_AND_TIME ( #79, #12 ) ;
#149 = PRODUCT_RELATED_PRODUCT_CATEGORY ( 'detail', '', ( #60 ) ) ;
#150 = FACE_OUTER_BOUND ( 'NONE', #53, .T. ) ;
#151 = APPROVAL_PERSON_ORGANIZATION ( #19, #195, #67 ) ;
#152 = ORIENTED_EDGE ( 'NONE', *, *, #101, .T. ) ;
#153 = AXIS2_PLACEMENT_3D ( 'NONE', #106, #184, #45 ) ;
#154 = CARTESIAN_POINT ( 'NONE',  ( 8.889711916655850098E-15, -3.118091201851270599E-16, 2.546114687126285858 ) ) ;
#155 = DIRECTION ( 'NONE',  ( -3.491481338843133355E-15, 1.224646799147353207E-16, -1.000000000000000000 ) ) ;
#156 = AXIS2_PLACEMENT_3D ( 'NONE', #91, #74, #190 ) ;
#157 = ADVANCED_FACE ( 'NONE', ( #2 ), #141, .T. ) ;
#158 = COORDINATED_UNIVERSAL_TIME_OFFSET ( 1, 0, .AHEAD. ) ;
#159 = PERSON_AND_ORGANIZATION ( #181, #70 ) ;
#160 = PERSON_AND_ORGANIZATION ( #181, #70 ) ;
#161 = EDGE_LOOP ( 'NONE', ( #90 ) ) ;
#162 = CC_DESIGN_PERSON_AND_ORGANIZATION_ASSIGNMENT ( #159, #48, ( #77 ) ) ;
#163 = EDGE_LOOP ( 'NONE', ( #102 ) ) ;
#164 = FACE_OUTER_BOUND ( 'NONE', #163, .T. ) ;
#165 = CYLINDRICAL_SURFACE ( 'NONE', #72, 1.500000000000000000 ) ;
#166 = PRODUCT_DEFINITION_SHAPE ( 'NONE', 'NONE',  #147 ) ;
#167 = LOCAL_TIME ( 11, 21, 36.00000000000000000, #158 ) ;
#168 =( LENGTH_UNIT ( ) NAMED_UNIT ( * ) SI_UNIT ( .MILLI., .METRE. ) );
#169 = VERTEX_POINT ( 'NONE', #92 ) ;
#170 = DIRECTION ( 'NONE',  ( -3.491481338843133355E-15, 1.224646799147353207E-16, -1.000000000000000000 ) ) ;
#171 = ADVANCED_FACE ( 'NONE', ( #108 ), #32, .F. ) ;
#172 = PERSON_AND_ORGANIZATION_ROLE ( 'design_supplier' ) ;
#173 = DATE_TIME_ROLE ( 'classification_date' ) ;
#174 = APPROVAL_DATE_TIME ( #51, #54 ) ;
#175 = DATE_AND_TIME ( #127, #52 ) ;
#176 = DIRECTION ( 'NONE',  ( 0.0000000000000000000, 0.0000000000000000000, 1.000000000000000000 ) ) ;
#177 = CC_DESIGN_PERSON_AND_ORGANIZATION_ASSIGNMENT ( #145, #172, ( #200 ) ) ;
#178 = ORIENTED_EDGE ( 'NONE', *, *, #66, .F. ) ;
#179 = LOCAL_TIME ( 11, 21, 36.00000000000000000, #68 ) ;
#180 = ORIENTED_EDGE ( 'NONE', *, *, #101, .F. ) ;
#181 = PERSON ( 'UNSPECIFIED', 'UNSPECIFIED', 'UNSPECIFIED', ('UNSPECIFIED'), ('UNSPECIFIED'), ('UNSPECIFIED') ) ;
#182 = ADVANCED_FACE ( 'NONE', ( #14 ), #30, .F. ) ;
#183 = AXIS2_PLACEMENT_3D ( 'NONE', #109, #94, #120 ) ;
#184 = DIRECTION ( 'NONE',  ( 3.491481338843133355E-15, -1.224646799147353207E-16, 1.000000000000000000 ) ) ;
#185 = APPROVAL_PERSON_ORGANIZATION ( #47, #107, #113 ) ;
#186 = DIRECTION ( 'NONE',  ( -3.491481338843133355E-15, 1.224646799147353207E-16, -1.000000000000000000 ) ) ;
#187 = APPLICATION_CONTEXT ( 'configuration controlled 3d designs of mechanical parts and assemblies' ) ;
#188 = CARTESIAN_POINT ( 'NONE',  ( 8.889711916655850098E-15, -3.118091201851270599E-16, 2.546114687126285858 ) ) ;
#189 = DESIGN_CONTEXT ( 'detailed design', #187, 'design' ) ;
#190 = DIRECTION ( 'NONE',  ( -4.275831445896958607E-31, -1.000000000000000000, -1.224646799147353207E-16 ) ) ;
#191 = DIRECTION ( 'NONE',  ( -3.491481338843133355E-15, 1.224646799147353207E-16, -1.000000000000000000 ) ) ;
#192 = DIRECTION ( 'NONE',  ( 1.000000000000000000, 0.0000000000000000000, 0.0000000000000000000 ) ) ;
#193 = PERSON_AND_ORGANIZATION_ROLE ( 'creator' ) ;
#194 = MECHANICAL_CONTEXT ( 'NONE', #29, 'mechanical' ) ;
#195 = APPROVAL ( #126, 'UNSPECIFIED' ) ;
#196 = APPROVAL_DATE_TIME ( #114, #107 ) ;
#197 = EDGE_CURVE ( 'NONE', #169, #169, #6, .T. ) ;
#198 = DIRECTION ( 'NONE',  ( -3.491481338843133355E-15, 1.224646799147353207E-16, -1.000000000000000000 ) ) ;
#199 = CIRCLE ( 'NONE', #43, 1.200000000000000178 ) ;
#200 = PRODUCT_DEFINITION_FORMATION_WITH_SPECIFIED_SOURCE ( 'ANY', '', #60, .NOT_KNOWN. ) ;
#201 = EDGE_LOOP ( 'NONE', ( #26 ) ) ;
#202 = CC_DESIGN_PERSON_AND_ORGANIZATION_ASSIGNMENT ( #18, #99, ( #147 ) ) ;
#203 = VERTEX_POINT ( 'NONE', #44 ) ;
ENDSEC;
END-ISO-10303-21;
