ISO-10303-21;
HEADER;
FILE_DESCRIPTION (( 'STEP AP203' ),
    '1' );
FILE_NAME ('326676.step',
    '2021-11-22T10:21:35',
    ( '' ),
    ( '' ),
    'SwSTEP 2.0',
    'SolidWorks 2019',
    '' );
FILE_SCHEMA (( 'CONFIG_CONTROL_DESIGN' ));
ENDSEC;

DATA;
#1 = EDGE_LOOP ( 'NONE', ( #102 ) ) ;
#2 = MANIFOLD_SOLID_BREP ( 'Corps-Déplacer/Copier1[1]', #89 ) ;
#3 = AXIS2_PLACEMENT_3D ( 'NONE', #109, #149, #9 ) ;
#4 = PRODUCT_DEFINITION_SHAPE ( 'NONE', 'NONE',  #185 ) ;
#5 = DIRECTION ( 'NONE',  ( -3.491481338843133355E-15, 1.224646799147353207E-16, -1.000000000000000000 ) ) ;
#6 = CC_DESIGN_PERSON_AND_ORGANIZATION_ASSIGNMENT ( #128, #77, ( #171 ) ) ;
#7 = FACE_BOUND ( 'NONE', #1, .T. ) ;
#8 = APPROVAL_PERSON_ORGANIZATION ( #30, #169, #64 ) ;
#9 = DIRECTION ( 'NONE',  ( 0.0000000000000000000, 1.000000000000000000, 0.0000000000000000000 ) ) ;
#10 = DIRECTION ( 'NONE',  ( -3.491481338843133355E-15, 1.224646799147353207E-16, -1.000000000000000000 ) ) ;
#11 = APPROVAL_STATUS ( 'not_yet_approved' ) ;
#12 = PERSON_AND_ORGANIZATION_ROLE ( 'design_supplier' ) ;
#13 = ORGANIZATION ( 'UNSPECIFIED', 'UNSPECIFIED', '' ) ;
#14 = SHAPE_DEFINITION_REPRESENTATION ( #4, #86 ) ;
#15 = ADVANCED_FACE ( 'NONE', ( #37, #118 ), #99, .T. ) ;
#16 = DIRECTION ( 'NONE',  ( 4.275831445896959482E-31, 1.000000000000000000, 1.224646799147353207E-16 ) ) ;
#17 = APPROVAL_PERSON_ORGANIZATION ( #202, #195, #115 ) ;
#18 = UNCERTAINTY_MEASURE_WITH_UNIT (LENGTH_MEASURE( 1.000000000000000082E-05 ), #71, 'distance_accuracy_value', 'NONE');
#19 = ADVANCED_FACE ( 'NONE', ( #203 ), #131, .F. ) ;
#20 = EDGE_LOOP ( 'NONE', ( #132 ) ) ;
#21 = FACE_BOUND ( 'NONE', #176, .T. ) ;
#22 = CARTESIAN_POINT ( 'NONE',  ( 1.326762908760390423E-13, 1.199999999999995515, 38.00000000000000000 ) ) ;
#23 = FACE_OUTER_BOUND ( 'NONE', #160, .T. ) ;
#24 = AXIS2_PLACEMENT_3D ( 'NONE', #111, #10, #150 ) ;
#25 = APPLICATION_CONTEXT ( 'configuration controlled 3d designs of mechanical parts and assemblies' ) ;
#26 = VERTEX_POINT ( 'NONE', #75 ) ;
#27 = MECHANICAL_CONTEXT ( 'NONE', #25, 'mechanical' ) ;
#28 = APPROVAL_DATE_TIME ( #31, #38 ) ;
#29 = APPLICATION_PROTOCOL_DEFINITION ( 'international standard', 'config_control_design', 1994, #25 ) ;
#30 = PERSON_AND_ORGANIZATION ( #180, #13 ) ;
#31 = DATE_AND_TIME ( #44, #113 ) ;
#32 = EDGE_LOOP ( 'NONE', ( #104 ) ) ;
#33 = CARTESIAN_POINT ( 'NONE',  ( 8.919949032018621985E-15, -7.386380110457803505E-16, 2.554774941164129398 ) ) ;
#34 = CC_DESIGN_APPROVAL ( #169, ( #42 ) ) ;
#35 = EDGE_CURVE ( 'NONE', #40, #40, #173, .T. ) ;
#36 = ORIENTED_EDGE ( 'NONE', *, *, #54, .T. ) ;
#37 = FACE_OUTER_BOUND ( 'NONE', #121, .T. ) ;
#38 = APPROVAL ( #11, 'UNSPECIFIED' ) ;
#39 = VERTEX_POINT ( 'NONE', #106 ) ;
#40 = VERTEX_POINT ( 'NONE', #108 ) ;
#41 = DIRECTION ( 'NONE',  ( -4.275831445896958607E-31, -1.000000000000000000, -1.224646799147353207E-16 ) ) ;
#42 = SECURITY_CLASSIFICATION ( '', '', #112 ) ;
#43 = CARTESIAN_POINT ( 'NONE',  ( -1.774439837234213840E-32, 0.02499999999999997710, -5.082197683525802034E-18 ) ) ;
#44 = CALENDAR_DATE ( 2021, 22, 11 ) ;
#45 = DATE_AND_TIME ( #141, #83 ) ;
#46 = AXIS2_PLACEMENT_3D ( 'NONE', #58, #69, #41 ) ;
#47 = APPROVAL_STATUS ( 'not_yet_approved' ) ;
#48 = APPROVAL_STATUS ( 'not_yet_approved' ) ;
#49 = ADVANCED_FACE ( 'NONE', ( #21, #110 ), #119, .T. ) ;
#50 = DIRECTION ( 'NONE',  ( 1.000000000000000000, 0.0000000000000000000, 0.0000000000000000000 ) ) ;
#51 = CC_DESIGN_PERSON_AND_ORGANIZATION_ASSIGNMENT ( #114, #116, ( #185 ) ) ;
#52 = APPLICATION_CONTEXT ( 'configuration controlled 3d designs of mechanical parts and assemblies' ) ;
#53 = ORIENTED_EDGE ( 'NONE', *, *, #35, .F. ) ;
#54 = EDGE_CURVE ( 'NONE', #163, #163, #129, .T. ) ;
#55 = EDGE_LOOP ( 'NONE', ( #36 ) ) ;
#56 = CARTESIAN_POINT ( 'NONE',  ( 1.326762908760390423E-13, -4.653657836759941941E-15, 38.00000000000000000 ) ) ;
#57 = AXIS2_PLACEMENT_3D ( 'NONE', #60, #85, #74 ) ;
#58 = CARTESIAN_POINT ( 'NONE',  ( -1.421698849354226281E-32, 4.986648291209303502E-34, -4.071907340697091448E-18 ) ) ;
#59 = CARTESIAN_POINT ( 'NONE',  ( 8.919949032018623563E-15, -3.128696954238519563E-16, 2.554774941164129842 ) ) ;
#60 = CARTESIAN_POINT ( 'NONE',  ( 1.316288464743861212E-13, -4.616918432785521081E-15, 37.69999999999999574 ) ) ;
#61 = DIRECTION ( 'NONE',  ( 3.491481338843133355E-15, -1.224646799147353207E-16, 1.000000000000000000 ) ) ;
#62 = PERSON_AND_ORGANIZATION ( #180, #13 ) ;
#63 = CALENDAR_DATE ( 2021, 22, 11 ) ;
#64 = APPROVAL_ROLE ( '' ) ;
#65 = ORIENTED_EDGE ( 'NONE', *, *, #103, .F. ) ;
#66 = MANIFOLD_SOLID_BREP ( 'Corps-Déplacer/Copier1[2]', #101 ) ;
#67 = CC_DESIGN_SECURITY_CLASSIFICATION ( #42, ( #171 ) ) ;
#68 = ORIENTED_EDGE ( 'NONE', *, *, #103, .T. ) ;
#69 = DIRECTION ( 'NONE',  ( 3.491481338843133355E-15, -1.224646799147353207E-16, 1.000000000000000000 ) ) ;
#70 = CC_DESIGN_APPROVAL ( #195, ( #185 ) ) ;
#71 =( LENGTH_UNIT ( ) NAMED_UNIT ( * ) SI_UNIT ( .MILLI., .METRE. ) );
#72 = CONICAL_SURFACE ( 'NONE', #189, 1.500000000000000000, 0.7853981633974453924 ) ;
#73 = CARTESIAN_POINT ( 'NONE',  ( 1.316288464743861212E-13, -4.616918432785521081E-15, 37.69999999999999574 ) ) ;
#74 = DIRECTION ( 'NONE',  ( 0.0000000000000000000, 1.000000000000000000, 0.0000000000000000000 ) ) ;
#75 = CARTESIAN_POINT ( 'NONE',  ( 8.919949032018623563E-15, 1.499999999999999334, 2.554774941164129842 ) ) ;
#76 = COORDINATED_UNIVERSAL_TIME_OFFSET ( 1, 0, .AHEAD. ) ;
#77 = PERSON_AND_ORGANIZATION_ROLE ( 'creator' ) ;
#78 = DATE_AND_TIME ( #63, #93 ) ;
#79 = AXIS2_PLACEMENT_3D ( 'NONE', #56, #123, #90 ) ;
#80 = PERSON_AND_ORGANIZATION ( #180, #13 ) ;
#81 = DATE_AND_TIME ( #98, #127 ) ;
#82 = ADVANCED_FACE ( 'NONE', ( #197 ), #148, .F. ) ;
#83 = LOCAL_TIME ( 11, 21, 35.00000000000000000, #186 ) ;
#84 = PRODUCT ( '326676', '326676', '', ( #27 ) ) ;
#85 = DIRECTION ( 'NONE',  ( -3.491481338843133355E-15, 1.224646799147353207E-16, -1.000000000000000000 ) ) ;
#86 = ADVANCED_BREP_SHAPE_REPRESENTATION ( '326676', ( #2, #66, #125 ), #187 ) ;
#87 = DIRECTION ( 'NONE',  ( -4.275831445896958607E-31, -1.000000000000000000, -1.224646799147353207E-16 ) ) ;
#88 = CC_DESIGN_DATE_AND_TIME_ASSIGNMENT ( #175, #172, ( #185 ) ) ;
#89 = CLOSED_SHELL ( 'NONE', ( #19, #15, #190, #82 ) ) ;
#90 = DIRECTION ( 'NONE',  ( 0.0000000000000000000, 1.000000000000000000, 0.0000000000000000000 ) ) ;
#91 = ADVANCED_FACE ( 'NONE', ( #192 ), #182, .F. ) ;
#92 = CARTESIAN_POINT ( 'NONE',  ( 8.919949032018621985E-15, -7.386380110457803505E-16, 2.554774941164129398 ) ) ;
#93 = LOCAL_TIME ( 11, 21, 35.00000000000000000, #76 ) ;
#94 = COORDINATED_UNIVERSAL_TIME_OFFSET ( 1, 0, .AHEAD. ) ;
#95 = DATE_TIME_ROLE ( 'classification_date' ) ;
#96 = APPLICATION_PROTOCOL_DEFINITION ( 'international standard', 'config_control_design', 1994, #52 ) ;
#97 = CC_DESIGN_DATE_AND_TIME_ASSIGNMENT ( #78, #95, ( #42 ) ) ;
#98 = CALENDAR_DATE ( 2021, 22, 11 ) ;
#99 = CYLINDRICAL_SURFACE ( 'NONE', #200, 1.499999999999999778 ) ;
#100 = APPROVAL_PERSON_ORGANIZATION ( #126, #38, #199 ) ;
#101 = CLOSED_SHELL ( 'NONE', ( #91, #49, #161 ) ) ;
#102 = ORIENTED_EDGE ( 'NONE', *, *, #201, .T. ) ;
#103 = EDGE_CURVE ( 'NONE', #39, #39, #159, .T. ) ;
#104 = ORIENTED_EDGE ( 'NONE', *, *, #107, .T. ) ;
#105 = DIRECTION ( 'NONE',  ( -3.491481338843133355E-15, 1.224646799147353207E-16, -1.000000000000000000 ) ) ;
#106 = CARTESIAN_POINT ( 'NONE',  ( 8.919949032018623563E-15, 1.499999999999999334, 2.554774941164129842 ) ) ;
#107 = EDGE_CURVE ( 'NONE', #26, #26, #194, .T. ) ;
#108 = CARTESIAN_POINT ( 'NONE',  ( 1.316288464743861212E-13, 1.499999999999995559, 37.69999999999999574 ) ) ;
#109 = CARTESIAN_POINT ( 'NONE',  ( 8.919949032018623563E-15, -3.128696954238519563E-16, 2.554774941164129842 ) ) ;
#110 = FACE_OUTER_BOUND ( 'NONE', #32, .T. ) ;
#111 = CARTESIAN_POINT ( 'NONE',  ( 1.326762908760390423E-13, 8.998558695971078593E-33, 38.00000000000000000 ) ) ;
#112 = SECURITY_CLASSIFICATION_LEVEL ( 'unclassified' ) ;
#113 = LOCAL_TIME ( 11, 21, 35.00000000000000000, #188 ) ;
#114 = PERSON_AND_ORGANIZATION ( #180, #13 ) ;
#115 = APPROVAL_ROLE ( '' ) ;
#116 = PERSON_AND_ORGANIZATION_ROLE ( 'creator' ) ;
#117 = DESIGN_CONTEXT ( 'detailed design', #52, 'design' ) ;
#118 = FACE_OUTER_BOUND ( 'NONE', #146, .T. ) ;
#119 = CONICAL_SURFACE ( 'NONE', #133, 1.499999999999999556, 0.5235987755982927094 ) ;
#120 = ORIENTED_EDGE ( 'NONE', *, *, #201, .F. ) ;
#121 = EDGE_LOOP ( 'NONE', ( #122 ) ) ;
#122 = ORIENTED_EDGE ( 'NONE', *, *, #35, .T. ) ;
#123 = DIRECTION ( 'NONE',  ( -3.491481338843133355E-15, 1.224646799147353207E-16, -1.000000000000000000 ) ) ;
#124 = DIRECTION ( 'NONE',  ( -3.491481338843133355E-15, 1.224646799147353207E-16, -1.000000000000000000 ) ) ;
#125 = AXIS2_PLACEMENT_3D ( 'NONE', #143, #170, #50 ) ;
#126 = PERSON_AND_ORGANIZATION ( #180, #13 ) ;
#127 = LOCAL_TIME ( 11, 21, 35.00000000000000000, #130 ) ;
#128 = PERSON_AND_ORGANIZATION ( #180, #13 ) ;
#129 = CIRCLE ( 'NONE', #136, 0.02499999999999997710 ) ;
#130 = COORDINATED_UNIVERSAL_TIME_OFFSET ( 1, 0, .AHEAD. ) ;
#131 = PLANE ( 'NONE',  #157 ) ;
#132 = ORIENTED_EDGE ( 'NONE', *, *, #107, .F. ) ;
#133 = AXIS2_PLACEMENT_3D ( 'NONE', #59, #61, #178 ) ;
#134 = EDGE_LOOP ( 'NONE', ( #68 ) ) ;
#135 = DIRECTION ( 'NONE',  ( 0.0000000000000000000, 1.000000000000000000, 0.0000000000000000000 ) ) ;
#136 = AXIS2_PLACEMENT_3D ( 'NONE', #138, #124, #196 ) ;
#137 = DIRECTION ( 'NONE',  ( -3.491481338843133355E-15, 1.224646799147353207E-16, -1.000000000000000000 ) ) ;
#138 = CARTESIAN_POINT ( 'NONE',  ( -2.843397698708452561E-32, 9.973296582418607005E-34, -8.143814681394182895E-18 ) ) ;
#139 = DIRECTION ( 'NONE',  ( 3.491481338843133355E-15, -1.224646799147353207E-16, 1.000000000000000000 ) ) ;
#140 = APPROVAL_DATE_TIME ( #45, #195 ) ;
#141 = CALENDAR_DATE ( 2021, 22, 11 ) ;
#142 = AXIS2_PLACEMENT_3D ( 'NONE', #181, #5, #135 ) ;
#143 = CARTESIAN_POINT ( 'NONE',  ( 0.0000000000000000000, 0.0000000000000000000, 0.0000000000000000000 ) ) ;
#144 = PERSON_AND_ORGANIZATION_ROLE ( 'design_owner' ) ;
#145 = CC_DESIGN_PERSON_AND_ORGANIZATION_ASSIGNMENT ( #80, #144, ( #84 ) ) ;
#146 = EDGE_LOOP ( 'NONE', ( #65 ) ) ;
#147 = PRODUCT_RELATED_PRODUCT_CATEGORY ( 'detail', '', ( #84 ) ) ;
#148 = PLANE ( 'NONE',  #24 ) ;
#149 = DIRECTION ( 'NONE',  ( -3.491481338843133355E-15, 1.224646799147353207E-16, -1.000000000000000000 ) ) ;
#150 = DIRECTION ( 'NONE',  ( 4.275831445896958607E-31, 1.000000000000000000, 1.224646799147353207E-16 ) ) ;
#151 =( NAMED_UNIT ( * ) SI_UNIT ( $, .STERADIAN. ) SOLID_ANGLE_UNIT ( ) );
#152 = LOCAL_TIME ( 11, 21, 35.00000000000000000, #94 ) ;
#153 = CC_DESIGN_PERSON_AND_ORGANIZATION_ASSIGNMENT ( #198, #12, ( #171 ) ) ;
#154 = PERSON_AND_ORGANIZATION_ROLE ( 'classification_officer' ) ;
#155 = APPROVAL_DATE_TIME ( #81, #169 ) ;
#156 = CARTESIAN_POINT ( 'NONE',  ( 0.0000000000000000000, 0.0000000000000000000, 0.0000000000000000000 ) ) ;
#157 = AXIS2_PLACEMENT_3D ( 'NONE', #33, #158, #87 ) ;
#158 = DIRECTION ( 'NONE',  ( 3.491481338843133355E-15, -1.224646799147353207E-16, 1.000000000000000000 ) ) ;
#159 = CIRCLE ( 'NONE', #3, 1.499999999999999556 ) ;
#160 = EDGE_LOOP ( 'NONE', ( #53 ) ) ;
#161 = ADVANCED_FACE ( 'NONE', ( #184 ), #164, .T. ) ;
#162 = VERTEX_POINT ( 'NONE', #22 ) ;
#163 = VERTEX_POINT ( 'NONE', #43 ) ;
#164 = PLANE ( 'NONE',  #166 ) ;
#165 = CC_DESIGN_PERSON_AND_ORGANIZATION_ASSIGNMENT ( #62, #154, ( #42 ) ) ;
#166 = AXIS2_PLACEMENT_3D ( 'NONE', #92, #139, #168 ) ;
#167 = DIRECTION ( 'NONE',  ( 0.0000000000000000000, 1.000000000000000000, 0.0000000000000000000 ) ) ;
#168 = DIRECTION ( 'NONE',  ( -4.275831445896958607E-31, -1.000000000000000000, -1.224646799147353207E-16 ) ) ;
#169 = APPROVAL ( #47, 'UNSPECIFIED' ) ;
#170 = DIRECTION ( 'NONE',  ( 0.0000000000000000000, 0.0000000000000000000, 1.000000000000000000 ) ) ;
#171 = PRODUCT_DEFINITION_FORMATION_WITH_SPECIFIED_SOURCE ( 'ANY', '', #84, .NOT_KNOWN. ) ;
#172 = DATE_TIME_ROLE ( 'creation_date' ) ;
#173 = CIRCLE ( 'NONE', #57, 1.500000000000000000 ) ;
#174 = CALENDAR_DATE ( 2021, 22, 11 ) ;
#175 = DATE_AND_TIME ( #174, #152 ) ;
#176 = EDGE_LOOP ( 'NONE', ( #177 ) ) ;
#177 = ORIENTED_EDGE ( 'NONE', *, *, #54, .F. ) ;
#178 = DIRECTION ( 'NONE',  ( 0.0000000000000000000, -1.000000000000000000, 0.0000000000000000000 ) ) ;
#179 = CC_DESIGN_APPROVAL ( #38, ( #171 ) ) ;
#180 = PERSON ( 'UNSPECIFIED', 'UNSPECIFIED', 'UNSPECIFIED', ('UNSPECIFIED'), ('UNSPECIFIED'), ('UNSPECIFIED') ) ;
#181 = CARTESIAN_POINT ( 'NONE',  ( 8.919949032018623563E-15, -3.128696954238519563E-16, 2.554774941164129842 ) ) ;
#182 = PLANE ( 'NONE',  #46 ) ;
#183 =( NAMED_UNIT ( * ) PLANE_ANGLE_UNIT ( ) SI_UNIT ( $, .RADIAN. ) );
#184 = FACE_OUTER_BOUND ( 'NONE', #20, .T. ) ;
#185 = PRODUCT_DEFINITION ( 'UNKNOWN', '', #171, #117 ) ;
#186 = COORDINATED_UNIVERSAL_TIME_OFFSET ( 1, 0, .AHEAD. ) ;
#187 =( GEOMETRIC_REPRESENTATION_CONTEXT ( 3 ) GLOBAL_UNCERTAINTY_ASSIGNED_CONTEXT ( ( #18 ) ) GLOBAL_UNIT_ASSIGNED_CONTEXT ( ( #71, #183, #151 ) ) REPRESENTATION_CONTEXT ( 'NONE', 'WORKASPACE' ) );
#188 = COORDINATED_UNIVERSAL_TIME_OFFSET ( 1, 0, .AHEAD. ) ;
#189 = AXIS2_PLACEMENT_3D ( 'NONE', #73, #137, #167 ) ;
#190 = ADVANCED_FACE ( 'NONE', ( #7, #23 ), #72, .T. ) ;
#191 = EDGE_LOOP ( 'NONE', ( #120 ) ) ;
#192 = FACE_OUTER_BOUND ( 'NONE', #55, .T. ) ;
#193 = CIRCLE ( 'NONE', #79, 1.200000000000000178 ) ;
#194 = CIRCLE ( 'NONE', #142, 1.499999999999999556 ) ;
#195 = APPROVAL ( #48, 'UNSPECIFIED' ) ;
#196 = DIRECTION ( 'NONE',  ( 4.275831445896959482E-31, 1.000000000000000000, 1.224646799147353207E-16 ) ) ;
#197 = FACE_OUTER_BOUND ( 'NONE', #191, .T. ) ;
#198 = PERSON_AND_ORGANIZATION ( #180, #13 ) ;
#199 = APPROVAL_ROLE ( '' ) ;
#200 = AXIS2_PLACEMENT_3D ( 'NONE', #156, #105, #16 ) ;
#201 = EDGE_CURVE ( 'NONE', #162, #162, #193, .T. ) ;
#202 = PERSON_AND_ORGANIZATION ( #180, #13 ) ;
#203 = FACE_OUTER_BOUND ( 'NONE', #134, .T. ) ;
ENDSEC;
END-ISO-10303-21;
