ISO-10303-21;
HEADER;
FILE_DESCRIPTION (( 'STEP AP203' ),
    '1' );
FILE_NAME ('326675.step',
    '2021-11-22T10:21:35',
    ( '' ),
    ( '' ),
    'SwSTEP 2.0',
    'SolidWorks 2019',
    '' );
FILE_SCHEMA (( 'CONFIG_CONTROL_DESIGN' ));
ENDSEC;

DATA;
#1 = APPLICATION_PROTOCOL_DEFINITION ( 'international standard', 'config_control_design', 1994, #199 ) ;
#2 = EDGE_LOOP ( 'NONE', ( #93 ) ) ;
#3 =( NAMED_UNIT ( * ) PLANE_ANGLE_UNIT ( ) SI_UNIT ( $, .RADIAN. ) );
#4 = CIRCLE ( 'NONE', #40, 1.200000000000000178 ) ;
#5 = LOCAL_TIME ( 11, 21, 35.00000000000000000, #104 ) ;
#6 = EDGE_LOOP ( 'NONE', ( #193 ) ) ;
#7 = PLANE ( 'NONE',  #139 ) ;
#8 = FACE_OUTER_BOUND ( 'NONE', #125, .T. ) ;
#9 = DIRECTION ( 'NONE',  ( 3.491481338843133355E-15, -1.224646799147353207E-16, 1.000000000000000000 ) ) ;
#10 = CC_DESIGN_PERSON_AND_ORGANIZATION_ASSIGNMENT ( #87, #106, ( #79 ) ) ;
#11 = COORDINATED_UNIVERSAL_TIME_OFFSET ( 1, 0, .AHEAD. ) ;
#12 = CC_DESIGN_SECURITY_CLASSIFICATION ( #168, ( #19 ) ) ;
#13 = ORIENTED_EDGE ( 'NONE', *, *, #126, .T. ) ;
#14 = DATE_AND_TIME ( #115, #29 ) ;
#15 = COORDINATED_UNIVERSAL_TIME_OFFSET ( 1, 0, .AHEAD. ) ;
#16 = CC_DESIGN_PERSON_AND_ORGANIZATION_ASSIGNMENT ( #32, #91, ( #168 ) ) ;
#17 = PLANE ( 'NONE',  #167 ) ;
#18 = AXIS2_PLACEMENT_3D ( 'NONE', #158, #43, #24 ) ;
#19 = PRODUCT_DEFINITION_FORMATION_WITH_SPECIFIED_SOURCE ( 'ANY', '', #92, .NOT_KNOWN. ) ;
#20 = CC_DESIGN_PERSON_AND_ORGANIZATION_ASSIGNMENT ( #192, #166, ( #19 ) ) ;
#21 = CIRCLE ( 'NONE', #45, 1.500000000000000000 ) ;
#22 = CARTESIAN_POINT ( 'NONE',  ( -1.011956846466622142E-32, 3.549466809727312556E-34, -2.898359602293975621E-18 ) ) ;
#23 = FACE_OUTER_BOUND ( 'NONE', #6, .T. ) ;
#24 = DIRECTION ( 'NONE',  ( 0.0000000000000000000, 1.000000000000000000, 0.0000000000000000000 ) ) ;
#25 = DESIGN_CONTEXT ( 'detailed design', #49, 'design' ) ;
#26 = APPROVAL_STATUS ( 'not_yet_approved' ) ;
#27 = ADVANCED_FACE ( 'NONE', ( #180, #195 ), #159, .T. ) ;
#28 = CALENDAR_DATE ( 2021, 22, 11 ) ;
#29 = LOCAL_TIME ( 11, 21, 35.00000000000000000, #152 ) ;
#30 = DATE_AND_TIME ( #105, #99 ) ;
#31 = FACE_OUTER_BOUND ( 'NONE', #67, .T. ) ;
#32 = PERSON_AND_ORGANIZATION ( #173, #77 ) ;
#33 = EDGE_LOOP ( 'NONE', ( #13 ) ) ;
#34 = APPROVAL ( #26, 'UNSPECIFIED' ) ;
#35 = APPROVAL_ROLE ( '' ) ;
#36 = AXIS2_PLACEMENT_3D ( 'NONE', #160, #85, #62 ) ;
#37 = FACE_OUTER_BOUND ( 'NONE', #33, .T. ) ;
#38 = ADVANCED_FACE ( 'NONE', ( #37 ), #17, .F. ) ;
#39 = CIRCLE ( 'NONE', #109, 0.07500000000000003886 ) ;
#40 = AXIS2_PLACEMENT_3D ( 'NONE', #60, #145, #202 ) ;
#41 = DIRECTION ( 'NONE',  ( -3.491481338843133355E-15, 1.224646799147353207E-16, -1.000000000000000000 ) ) ;
#42 = ADVANCED_FACE ( 'NONE', ( #31, #198 ), #58, .T. ) ;
#43 = DIRECTION ( 'NONE',  ( -3.491481338843133355E-15, 1.224646799147353207E-16, -1.000000000000000000 ) ) ;
#44 = DIRECTION ( 'NONE',  ( -3.491481338843133355E-15, 1.224646799147353207E-16, -1.000000000000000000 ) ) ;
#45 = AXIS2_PLACEMENT_3D ( 'NONE', #171, #44, #111 ) ;
#46 = CC_DESIGN_PERSON_AND_ORGANIZATION_ASSIGNMENT ( #102, #117, ( #92 ) ) ;
#47 = CARTESIAN_POINT ( 'NONE',  ( 1.066969589892036630E-14, -3.742425538730777104E-16, 3.055922361726172376 ) ) ;
#48 = APPROVAL_DATE_TIME ( #30, #51 ) ;
#49 = APPLICATION_CONTEXT ( 'configuration controlled 3d designs of mechanical parts and assemblies' ) ;
#50 = ORIENTED_EDGE ( 'NONE', *, *, #63, .F. ) ;
#51 = APPROVAL ( #66, 'UNSPECIFIED' ) ;
#52 = COORDINATED_UNIVERSAL_TIME_OFFSET ( 1, 0, .AHEAD. ) ;
#53 = ORIENTED_EDGE ( 'NONE', *, *, #63, .T. ) ;
#54 = PRODUCT_DEFINITION_SHAPE ( 'NONE', 'NONE',  #79 ) ;
#55 = DATE_TIME_ROLE ( 'classification_date' ) ;
#56 = AXIS2_PLACEMENT_3D ( 'NONE', #57, #118, #184 ) ;
#57 = CARTESIAN_POINT ( 'NONE',  ( 1.066969589892036630E-14, -3.742425538730777104E-16, 3.055922361726172376 ) ) ;
#58 = CYLINDRICAL_SURFACE ( 'NONE', #113, 1.500000000000000000 ) ;
#59 = DIRECTION ( 'NONE',  ( 0.0000000000000000000, 1.000000000000000000, 0.0000000000000000000 ) ) ;
#60 = CARTESIAN_POINT ( 'NONE',  ( 1.326762908760390423E-13, -4.653657836759941941E-15, 38.00000000000000000 ) ) ;
#61 = FACE_OUTER_BOUND ( 'NONE', #2, .T. ) ;
#62 = DIRECTION ( 'NONE',  ( 4.275831445896958607E-31, 1.000000000000000000, 1.224646799147353207E-16 ) ) ;
#63 = EDGE_CURVE ( 'NONE', #169, #169, #136, .T. ) ;
#64 = CARTESIAN_POINT ( 'NONE',  ( 1.066969589892036630E-14, 1.499999999999999556, 3.055922361726172376 ) ) ;
#65 = MECHANICAL_CONTEXT ( 'NONE', #199, 'mechanical' ) ;
#66 = APPROVAL_STATUS ( 'not_yet_approved' ) ;
#67 = EDGE_LOOP ( 'NONE', ( #122 ) ) ;
#68 = MANIFOLD_SOLID_BREP ( 'Corps-Déplacer/Copier1[1]', #155 ) ;
#69 = PERSON_AND_ORGANIZATION ( #173, #77 ) ;
#70 = CONICAL_SURFACE ( 'NONE', #18, 1.500000000000000000, 0.7853981633974453924 ) ;
#71 = ADVANCED_FACE ( 'NONE', ( #141, #61 ), #70, .T. ) ;
#72 = ORIENTED_EDGE ( 'NONE', *, *, #81, .T. ) ;
#73 =( NAMED_UNIT ( * ) SI_UNIT ( $, .STERADIAN. ) SOLID_ANGLE_UNIT ( ) );
#74 = ORIENTED_EDGE ( 'NONE', *, *, #81, .F. ) ;
#75 = EDGE_CURVE ( 'NONE', #187, #187, #39, .T. ) ;
#76 = APPROVAL_DATE_TIME ( #162, #34 ) ;
#77 = ORGANIZATION ( 'UNSPECIFIED', 'UNSPECIFIED', '' ) ;
#78 = MANIFOLD_SOLID_BREP ( 'Corps-Déplacer/Copier1[2]', #95 ) ;
#79 = PRODUCT_DEFINITION ( 'UNKNOWN', '', #19, #25 ) ;
#80 = DIRECTION ( 'NONE',  ( 3.491481338843133355E-15, -1.224646799147353207E-16, 1.000000000000000000 ) ) ;
#81 = EDGE_CURVE ( 'NONE', #174, #174, #4, .T. ) ;
#82 = CARTESIAN_POINT ( 'NONE',  ( 1.316288464743861212E-13, 1.499999999999995559, 37.69999999999999574 ) ) ;
#83 = DIRECTION ( 'NONE',  ( -3.491481338843133355E-15, 1.224646799147353207E-16, -1.000000000000000000 ) ) ;
#84 = LOCAL_TIME ( 11, 21, 35.00000000000000000, #15 ) ;
#85 = DIRECTION ( 'NONE',  ( -3.491481338843133355E-15, 1.224646799147353207E-16, -1.000000000000000000 ) ) ;
#86 = CARTESIAN_POINT ( 'NONE',  ( 1.066969589892036630E-14, -3.742425538730777104E-16, 3.055922361726172376 ) ) ;
#87 = PERSON_AND_ORGANIZATION ( #173, #77 ) ;
#88 = APPROVAL_PERSON_ORGANIZATION ( #123, #34, #100 ) ;
#89 = ORIENTED_EDGE ( 'NONE', *, *, #75, .F. ) ;
#90 = ADVANCED_FACE ( 'NONE', ( #188 ), #7, .T. ) ;
#91 = PERSON_AND_ORGANIZATION_ROLE ( 'classification_officer' ) ;
#92 = PRODUCT ( '326675', '326675', '', ( #65 ) ) ;
#93 = ORIENTED_EDGE ( 'NONE', *, *, #116, .F. ) ;
#94 = SHAPE_DEFINITION_REPRESENTATION ( #54, #138 ) ;
#95 = CLOSED_SHELL ( 'NONE', ( #154, #27, #90 ) ) ;
#96 = VERTEX_POINT ( 'NONE', #200 ) ;
#97 = CARTESIAN_POINT ( 'NONE',  ( 1.326762908760390423E-13, 1.199999999999995515, 38.00000000000000000 ) ) ;
#98 = DIRECTION ( 'NONE',  ( -3.491481338843133355E-15, 1.224646799147353207E-16, -1.000000000000000000 ) ) ;
#99 = LOCAL_TIME ( 11, 21, 35.00000000000000000, #52 ) ;
#100 = APPROVAL_ROLE ( '' ) ;
#101 = AXIS2_PLACEMENT_3D ( 'NONE', #47, #83, #59 ) ;
#102 = PERSON_AND_ORGANIZATION ( #173, #77 ) ;
#103 = PRODUCT_RELATED_PRODUCT_CATEGORY ( 'detail', '', ( #92 ) ) ;
#104 = COORDINATED_UNIVERSAL_TIME_OFFSET ( 1, 0, .AHEAD. ) ;
#105 = CALENDAR_DATE ( 2021, 22, 11 ) ;
#106 = PERSON_AND_ORGANIZATION_ROLE ( 'creator' ) ;
#107 = AXIS2_PLACEMENT_3D ( 'NONE', #86, #98, #189 ) ;
#108 = EDGE_LOOP ( 'NONE', ( #72 ) ) ;
#109 = AXIS2_PLACEMENT_3D ( 'NONE', #144, #41, #129 ) ;
#110 = PLANE ( 'NONE',  #36 ) ;
#111 = DIRECTION ( 'NONE',  ( 0.0000000000000000000, 1.000000000000000000, 0.0000000000000000000 ) ) ;
#112 = UNCERTAINTY_MEASURE_WITH_UNIT (LENGTH_MEASURE( 1.000000000000000082E-05 ), #128, 'distance_accuracy_value', 'NONE');
#113 = AXIS2_PLACEMENT_3D ( 'NONE', #185, #186, #142 ) ;
#114 = PLANE ( 'NONE',  #156 ) ;
#115 = CALENDAR_DATE ( 2021, 22, 11 ) ;
#116 = EDGE_CURVE ( 'NONE', #157, #157, #21, .T. ) ;
#117 = PERSON_AND_ORGANIZATION_ROLE ( 'design_owner' ) ;
#118 = DIRECTION ( 'NONE',  ( 3.491481338843133355E-15, -1.224646799147353207E-16, 1.000000000000000000 ) ) ;
#119 = PERSON_AND_ORGANIZATION ( #173, #77 ) ;
#120 = EDGE_LOOP ( 'NONE', ( #53 ) ) ;
#121 = CALENDAR_DATE ( 2021, 22, 11 ) ;
#122 = ORIENTED_EDGE ( 'NONE', *, *, #116, .T. ) ;
#123 = PERSON_AND_ORGANIZATION ( #173, #77 ) ;
#124 = CC_DESIGN_APPROVAL ( #197, ( #19 ) ) ;
#125 = EDGE_LOOP ( 'NONE', ( #74 ) ) ;
#126 = EDGE_CURVE ( 'NONE', #96, #96, #190, .T. ) ;
#127 = APPROVAL_PERSON_ORGANIZATION ( #135, #197, #35 ) ;
#128 =( LENGTH_UNIT ( ) NAMED_UNIT ( * ) SI_UNIT ( .MILLI., .METRE. ) );
#129 = DIRECTION ( 'NONE',  ( 4.275831445896957731E-31, 1.000000000000000000, 1.224646799147352961E-16 ) ) ;
#130 = DIRECTION ( 'NONE',  ( 0.0000000000000000000, 0.0000000000000000000, 1.000000000000000000 ) ) ;
#131 = EDGE_LOOP ( 'NONE', ( #50 ) ) ;
#132 = PERSON_AND_ORGANIZATION_ROLE ( 'creator' ) ;
#133 = DIRECTION ( 'NONE',  ( 1.000000000000000000, 0.0000000000000000000, 0.0000000000000000000 ) ) ;
#134 = CC_DESIGN_PERSON_AND_ORGANIZATION_ASSIGNMENT ( #69, #132, ( #19 ) ) ;
#135 = PERSON_AND_ORGANIZATION ( #173, #77 ) ;
#136 = CIRCLE ( 'NONE', #101, 1.500000000000000000 ) ;
#137 = ADVANCED_FACE ( 'NONE', ( #8 ), #110, .F. ) ;
#138 = ADVANCED_BREP_SHAPE_REPRESENTATION ( '326675', ( #68, #78, #161 ), #147 ) ;
#139 = AXIS2_PLACEMENT_3D ( 'NONE', #175, #9, #172 ) ;
#140 = DIRECTION ( 'NONE',  ( -4.275831445896958607E-31, -1.000000000000000000, -1.224646799147353207E-16 ) ) ;
#141 = FACE_BOUND ( 'NONE', #108, .T. ) ;
#142 = DIRECTION ( 'NONE',  ( 4.275831445896959482E-31, 1.000000000000000000, 1.224646799147353207E-16 ) ) ;
#143 = CC_DESIGN_APPROVAL ( #34, ( #168 ) ) ;
#144 = CARTESIAN_POINT ( 'NONE',  ( -2.023913692933244284E-32, 7.098933619454625113E-34, -5.796719204587951241E-18 ) ) ;
#145 = DIRECTION ( 'NONE',  ( -3.491481338843133355E-15, 1.224646799147353207E-16, -1.000000000000000000 ) ) ;
#146 = CARTESIAN_POINT ( 'NONE',  ( 1.182959891489476121E-32, 0.07500000000000003886, 3.388131789017201356E-18 ) ) ;
#147 =( GEOMETRIC_REPRESENTATION_CONTEXT ( 3 ) GLOBAL_UNCERTAINTY_ASSIGNED_CONTEXT ( ( #112 ) ) GLOBAL_UNIT_ASSIGNED_CONTEXT ( ( #128, #3, #73 ) ) REPRESENTATION_CONTEXT ( 'NONE', 'WORKASPACE' ) );
#148 = CARTESIAN_POINT ( 'NONE',  ( 1.066969589892036630E-14, 1.124819836996392658E-32, 3.055922361726172376 ) ) ;
#149 = APPROVAL_STATUS ( 'not_yet_approved' ) ;
#150 = CARTESIAN_POINT ( 'NONE',  ( 0.0000000000000000000, 0.0000000000000000000, 0.0000000000000000000 ) ) ;
#151 = ORIENTED_EDGE ( 'NONE', *, *, #126, .F. ) ;
#152 = COORDINATED_UNIVERSAL_TIME_OFFSET ( 1, 0, .AHEAD. ) ;
#153 = EDGE_LOOP ( 'NONE', ( #151 ) ) ;
#154 = ADVANCED_FACE ( 'NONE', ( #23 ), #114, .F. ) ;
#155 = CLOSED_SHELL ( 'NONE', ( #38, #42, #71, #137 ) ) ;
#156 = AXIS2_PLACEMENT_3D ( 'NONE', #22, #80, #140 ) ;
#157 = VERTEX_POINT ( 'NONE', #82 ) ;
#158 = CARTESIAN_POINT ( 'NONE',  ( 1.316288464743861212E-13, -4.616918432785521081E-15, 37.69999999999999574 ) ) ;
#159 = CONICAL_SURFACE ( 'NONE', #56, 1.500000000000000000, 0.4363323129985759441 ) ;
#160 = CARTESIAN_POINT ( 'NONE',  ( 1.326762908760390423E-13, 8.998558695971078593E-33, 38.00000000000000000 ) ) ;
#161 = AXIS2_PLACEMENT_3D ( 'NONE', #150, #130, #133 ) ;
#162 = DATE_AND_TIME ( #28, #201 ) ;
#163 = EDGE_LOOP ( 'NONE', ( #89 ) ) ;
#164 = DATE_AND_TIME ( #121, #5 ) ;
#165 = SECURITY_CLASSIFICATION_LEVEL ( 'unclassified' ) ;
#166 = PERSON_AND_ORGANIZATION_ROLE ( 'design_supplier' ) ;
#167 = AXIS2_PLACEMENT_3D ( 'NONE', #148, #178, #191 ) ;
#168 = SECURITY_CLASSIFICATION ( '', '', #165 ) ;
#169 = VERTEX_POINT ( 'NONE', #64 ) ;
#170 = CC_DESIGN_DATE_AND_TIME_ASSIGNMENT ( #176, #55, ( #168 ) ) ;
#171 = CARTESIAN_POINT ( 'NONE',  ( 1.316288464743861212E-13, -4.616918432785521081E-15, 37.69999999999999574 ) ) ;
#172 = DIRECTION ( 'NONE',  ( -4.275831445896958607E-31, -1.000000000000000000, -1.224646799147353207E-16 ) ) ;
#173 = PERSON ( 'UNSPECIFIED', 'UNSPECIFIED', 'UNSPECIFIED', ('UNSPECIFIED'), ('UNSPECIFIED'), ('UNSPECIFIED') ) ;
#174 = VERTEX_POINT ( 'NONE', #97 ) ;
#175 = CARTESIAN_POINT ( 'NONE',  ( 1.066969589892036630E-14, 1.124819836996392658E-32, 3.055922361726172376 ) ) ;
#176 = DATE_AND_TIME ( #194, #84 ) ;
#177 = APPLICATION_PROTOCOL_DEFINITION ( 'international standard', 'config_control_design', 1994, #49 ) ;
#178 = DIRECTION ( 'NONE',  ( 3.491481338843133355E-15, -1.224646799147353207E-16, 1.000000000000000000 ) ) ;
#179 = APPROVAL_DATE_TIME ( #14, #197 ) ;
#180 = FACE_BOUND ( 'NONE', #163, .T. ) ;
#181 = DATE_TIME_ROLE ( 'creation_date' ) ;
#182 = APPROVAL_PERSON_ORGANIZATION ( #119, #51, #203 ) ;
#183 = CC_DESIGN_DATE_AND_TIME_ASSIGNMENT ( #164, #181, ( #79 ) ) ;
#184 = DIRECTION ( 'NONE',  ( 0.0000000000000000000, -1.000000000000000000, 0.0000000000000000000 ) ) ;
#185 = CARTESIAN_POINT ( 'NONE',  ( 0.0000000000000000000, 0.0000000000000000000, 0.0000000000000000000 ) ) ;
#186 = DIRECTION ( 'NONE',  ( -3.491481338843133355E-15, 1.224646799147353207E-16, -1.000000000000000000 ) ) ;
#187 = VERTEX_POINT ( 'NONE', #146 ) ;
#188 = FACE_OUTER_BOUND ( 'NONE', #131, .T. ) ;
#189 = DIRECTION ( 'NONE',  ( 0.0000000000000000000, 1.000000000000000000, 0.0000000000000000000 ) ) ;
#190 = CIRCLE ( 'NONE', #107, 1.500000000000000000 ) ;
#191 = DIRECTION ( 'NONE',  ( -4.275831445896958607E-31, -1.000000000000000000, -1.224646799147353207E-16 ) ) ;
#192 = PERSON_AND_ORGANIZATION ( #173, #77 ) ;
#193 = ORIENTED_EDGE ( 'NONE', *, *, #75, .T. ) ;
#194 = CALENDAR_DATE ( 2021, 22, 11 ) ;
#195 = FACE_OUTER_BOUND ( 'NONE', #120, .T. ) ;
#196 = CC_DESIGN_APPROVAL ( #51, ( #79 ) ) ;
#197 = APPROVAL ( #149, 'UNSPECIFIED' ) ;
#198 = FACE_OUTER_BOUND ( 'NONE', #153, .T. ) ;
#199 = APPLICATION_CONTEXT ( 'configuration controlled 3d designs of mechanical parts and assemblies' ) ;
#200 = CARTESIAN_POINT ( 'NONE',  ( 1.066969589892036630E-14, 1.499999999999999556, 3.055922361726172376 ) ) ;
#201 = LOCAL_TIME ( 11, 21, 35.00000000000000000, #11 ) ;
#202 = DIRECTION ( 'NONE',  ( 0.0000000000000000000, 1.000000000000000000, 0.0000000000000000000 ) ) ;
#203 = APPROVAL_ROLE ( '' ) ;
ENDSEC;
END-ISO-10303-21;
