ISO-10303-21;
HEADER;
FILE_DESCRIPTION (( 'STEP AP203' ),
    '1' );
FILE_NAME ('326674.step',
    '2021-11-22T10:21:34',
    ( '' ),
    ( '' ),
    'SwSTEP 2.0',
    'SolidWorks 2019',
    '' );
FILE_SCHEMA (( 'CONFIG_CONTROL_DESIGN' ));
ENDSEC;

DATA;
#1 = EDGE_LOOP ( 'NONE', ( #173 ) ) ;
#2 = DATE_TIME_ROLE ( 'classification_date' ) ;
#3 = DIRECTION ( 'NONE',  ( 3.491481338843133355E-15, -1.224646799147353207E-16, 1.000000000000000000 ) ) ;
#4 = PERSON_AND_ORGANIZATION ( #131, #185 ) ;
#5 = DIRECTION ( 'NONE',  ( -3.491481338843133355E-15, 1.224646799147353207E-16, -1.000000000000000000 ) ) ;
#6 = APPROVAL_STATUS ( 'not_yet_approved' ) ;
#7 = CARTESIAN_POINT ( 'NONE',  ( 1.326762908760390423E-13, 8.998558695971078593E-33, 38.00000000000000000 ) ) ;
#8 = EDGE_CURVE ( 'NONE', #89, #89, #18, .T. ) ;
#9 = CIRCLE ( 'NONE', #165, 0.04999999999999978767 ) ;
#10 = LOCAL_TIME ( 11, 21, 34.00000000000000000, #69 ) ;
#11 = ORIENTED_EDGE ( 'NONE', *, *, #74, .F. ) ;
#12 = CC_DESIGN_PERSON_AND_ORGANIZATION_ASSIGNMENT ( #98, #126, ( #21 ) ) ;
#13 = VERTEX_POINT ( 'NONE', #105 ) ;
#14 = ORIENTED_EDGE ( 'NONE', *, *, #74, .T. ) ;
#15 = APPROVAL_DATE_TIME ( #189, #41 ) ;
#16 = APPROVAL_ROLE ( '' ) ;
#17 = DIRECTION ( 'NONE',  ( -3.491481338843133355E-15, 1.224646799147353207E-16, -1.000000000000000000 ) ) ;
#18 = CIRCLE ( 'NONE', #182, 1.200000000000000178 ) ;
#19 = COORDINATED_UNIVERSAL_TIME_OFFSET ( 1, 0, .AHEAD. ) ;
#20 = DIRECTION ( 'NONE',  ( 0.0000000000000000000, -1.000000000000000000, 0.0000000000000000000 ) ) ;
#21 = PRODUCT ( '326674', '326674', '', ( #52 ) ) ;
#22 = FACE_OUTER_BOUND ( 'NONE', #158, .T. ) ;
#23 = DATE_AND_TIME ( #102, #153 ) ;
#24 = PRODUCT_DEFINITION_FORMATION_WITH_SPECIFIED_SOURCE ( 'ANY', '', #21, .NOT_KNOWN. ) ;
#25 = APPROVAL ( #51, 'UNSPECIFIED' ) ;
#26 = CLOSED_SHELL ( 'NONE', ( #107, #119, #66, #133 ) ) ;
#27 = EDGE_LOOP ( 'NONE', ( #80 ) ) ;
#28 = AXIS2_PLACEMENT_3D ( 'NONE', #118, #127, #150 ) ;
#29 = LOCAL_TIME ( 11, 21, 34.00000000000000000, #179 ) ;
#30 = SECURITY_CLASSIFICATION ( '', '', #54 ) ;
#31 = PERSON_AND_ORGANIZATION ( #131, #185 ) ;
#32 = DIRECTION ( 'NONE',  ( 0.0000000000000000000, 1.000000000000000000, 0.0000000000000000000 ) ) ;
#33 = DATE_TIME_ROLE ( 'creation_date' ) ;
#34 = FACE_BOUND ( 'NONE', #1, .T. ) ;
#35 = PERSON_AND_ORGANIZATION ( #131, #185 ) ;
#36 = APPROVAL ( #57, 'UNSPECIFIED' ) ;
#37 = APPROVAL_DATE_TIME ( #110, #25 ) ;
#38 = PLANE ( 'NONE',  #28 ) ;
#39 = DATE_AND_TIME ( #114, #70 ) ;
#40 = CARTESIAN_POINT ( 'NONE',  ( 0.0000000000000000000, 0.0000000000000000000, 0.0000000000000000000 ) ) ;
#41 = APPROVAL ( #6, 'UNSPECIFIED' ) ;
#42 = CARTESIAN_POINT ( 'NONE',  ( 1.085688354626984594E-14, 1.124819836996392522E-32, 3.109535034738912351 ) ) ;
#43 = CARTESIAN_POINT ( 'NONE',  ( -4.774779157294971708E-33, 1.674767081399972585E-34, -1.367551103359769398E-18 ) ) ;
#44 = CC_DESIGN_DATE_AND_TIME_ASSIGNMENT ( #196, #2, ( #30 ) ) ;
#45 = CONICAL_SURFACE ( 'NONE', #159, 1.500000000000000000, 0.7853981633974453924 ) ;
#46 = PRODUCT_RELATED_PRODUCT_CATEGORY ( 'detail', '', ( #21 ) ) ;
#47 = EDGE_LOOP ( 'NONE', ( #188 ) ) ;
#48 = AXIS2_PLACEMENT_3D ( 'NONE', #93, #5, #129 ) ;
#49 = APPROVAL_PERSON_ORGANIZATION ( #35, #36, #181 ) ;
#50 = DESIGN_CONTEXT ( 'detailed design', #95, 'design' ) ;
#51 = APPROVAL_STATUS ( 'not_yet_approved' ) ;
#52 = MECHANICAL_CONTEXT ( 'NONE', #166, 'mechanical' ) ;
#53 = EDGE_CURVE ( 'NONE', #59, #59, #56, .T. ) ;
#54 = SECURITY_CLASSIFICATION_LEVEL ( 'unclassified' ) ;
#55 = FACE_OUTER_BOUND ( 'NONE', #27, .T. ) ;
#56 = CIRCLE ( 'NONE', #48, 1.500000000000000000 ) ;
#57 = APPROVAL_STATUS ( 'not_yet_approved' ) ;
#58 = AXIS2_PLACEMENT_3D ( 'NONE', #40, #167, #88 ) ;
#59 = VERTEX_POINT ( 'NONE', #184 ) ;
#60 = CARTESIAN_POINT ( 'NONE',  ( 1.085688354626984594E-14, 1.499999999999999334, 3.109535034738912351 ) ) ;
#61 = EDGE_CURVE ( 'NONE', #138, #138, #75, .T. ) ;
#62 = ORIENTED_EDGE ( 'NONE', *, *, #61, .F. ) ;
#63 = COORDINATED_UNIVERSAL_TIME_OFFSET ( 1, 0, .AHEAD. ) ;
#64 = PERSON_AND_ORGANIZATION ( #131, #185 ) ;
#65 = FACE_OUTER_BOUND ( 'NONE', #142, .T. ) ;
#66 = ADVANCED_FACE ( 'NONE', ( #34, #22 ), #45, .T. ) ;
#67 = CALENDAR_DATE ( 2021, 22, 11 ) ;
#68 = FACE_OUTER_BOUND ( 'NONE', #124, .T. ) ;
#69 = COORDINATED_UNIVERSAL_TIME_OFFSET ( 1, 0, .AHEAD. ) ;
#70 = LOCAL_TIME ( 11, 21, 34.00000000000000000, #19 ) ;
#71 = DIRECTION ( 'NONE',  ( -4.275831445896958607E-31, -1.000000000000000000, -1.224646799147353207E-16 ) ) ;
#72 = AXIS2_PLACEMENT_3D ( 'NONE', #42, #168, #154 ) ;
#73 = CC_DESIGN_PERSON_AND_ORGANIZATION_ASSIGNMENT ( #162, #85, ( #24 ) ) ;
#74 = EDGE_CURVE ( 'NONE', #94, #94, #104, .T. ) ;
#75 = CIRCLE ( 'NONE', #116, 1.499999999999999778 ) ;
#76 = DIRECTION ( 'NONE',  ( -3.491481338843133355E-15, 1.224646799147353207E-16, -1.000000000000000000 ) ) ;
#77 =( NAMED_UNIT ( * ) PLANE_ANGLE_UNIT ( ) SI_UNIT ( $, .RADIAN. ) );
#78 = ORIENTED_EDGE ( 'NONE', *, *, #53, .F. ) ;
#79 =( GEOMETRIC_REPRESENTATION_CONTEXT ( 3 ) GLOBAL_UNCERTAINTY_ASSIGNED_CONTEXT ( ( #106 ) ) GLOBAL_UNIT_ASSIGNED_CONTEXT ( ( #92, #77, #122 ) ) REPRESENTATION_CONTEXT ( 'NONE', 'WORKASPACE' ) );
#80 = ORIENTED_EDGE ( 'NONE', *, *, #61, .T. ) ;
#81 = EDGE_LOOP ( 'NONE', ( #62 ) ) ;
#82 = DIRECTION ( 'NONE',  ( -3.491481338843133355E-15, 1.224646799147353207E-16, -1.000000000000000000 ) ) ;
#83 = ADVANCED_FACE ( 'NONE', ( #190, #55 ), #140, .T. ) ;
#84 = CC_DESIGN_APPROVAL ( #36, ( #30 ) ) ;
#85 = PERSON_AND_ORGANIZATION_ROLE ( 'design_supplier' ) ;
#86 = DIRECTION ( 'NONE',  ( -3.491481338843133355E-15, 1.224646799147353207E-16, -1.000000000000000000 ) ) ;
#87 = APPLICATION_PROTOCOL_DEFINITION ( 'international standard', 'config_control_design', 1994, #95 ) ;
#88 = DIRECTION ( 'NONE',  ( 4.275831445896959482E-31, 1.000000000000000000, 1.224646799147353207E-16 ) ) ;
#89 = VERTEX_POINT ( 'NONE', #202 ) ;
#90 = APPLICATION_PROTOCOL_DEFINITION ( 'international standard', 'config_control_design', 1994, #166 ) ;
#91 = AXIS2_PLACEMENT_3D ( 'NONE', #197, #3, #20 ) ;
#92 =( LENGTH_UNIT ( ) NAMED_UNIT ( * ) SI_UNIT ( .MILLI., .METRE. ) );
#93 = CARTESIAN_POINT ( 'NONE',  ( 1.316288464743861212E-13, -4.616918432785521081E-15, 37.69999999999999574 ) ) ;
#94 = VERTEX_POINT ( 'NONE', #187 ) ;
#95 = APPLICATION_CONTEXT ( 'configuration controlled 3d designs of mechanical parts and assemblies' ) ;
#96 = APPROVAL_PERSON_ORGANIZATION ( #149, #41, #16 ) ;
#97 = CC_DESIGN_APPROVAL ( #41, ( #199 ) ) ;
#98 = PERSON_AND_ORGANIZATION ( #131, #185 ) ;
#99 = CC_DESIGN_DATE_AND_TIME_ASSIGNMENT ( #39, #33, ( #199 ) ) ;
#100 = CARTESIAN_POINT ( 'NONE',  ( 1.085688354626984594E-14, -3.808082127129562511E-16, 3.109535034738912351 ) ) ;
#101 = CYLINDRICAL_SURFACE ( 'NONE', #58, 1.500000000000000000 ) ;
#102 = CALENDAR_DATE ( 2021, 22, 11 ) ;
#103 = DIRECTION ( 'NONE',  ( 0.0000000000000000000, 1.000000000000000000, 0.0000000000000000000 ) ) ;
#104 = CIRCLE ( 'NONE', #121, 1.499999999999999778 ) ;
#105 = CARTESIAN_POINT ( 'NONE',  ( 1.182959891489475848E-32, 0.04999999999999978767, 3.388131789017201356E-18 ) ) ;
#106 = UNCERTAINTY_MEASURE_WITH_UNIT (LENGTH_MEASURE( 1.000000000000000082E-05 ), #92, 'distance_accuracy_value', 'NONE');
#107 = ADVANCED_FACE ( 'NONE', ( #68 ), #38, .F. ) ;
#108 = DIRECTION ( 'NONE',  ( 4.275831445896958607E-31, 1.000000000000000000, 1.224646799147353207E-16 ) ) ;
#109 = CC_DESIGN_APPROVAL ( #25, ( #24 ) ) ;
#110 = DATE_AND_TIME ( #67, #160 ) ;
#111 = FACE_OUTER_BOUND ( 'NONE', #157, .T. ) ;
#112 = DIRECTION ( 'NONE',  ( 0.0000000000000000000, 0.0000000000000000000, 1.000000000000000000 ) ) ;
#113 = PLANE ( 'NONE',  #146 ) ;
#114 = CALENDAR_DATE ( 2021, 22, 11 ) ;
#115 = CARTESIAN_POINT ( 'NONE',  ( 1.316288464743861212E-13, -4.616918432785521081E-15, 37.69999999999999574 ) ) ;
#116 = AXIS2_PLACEMENT_3D ( 'NONE', #100, #86, #32 ) ;
#117 = COORDINATED_UNIVERSAL_TIME_OFFSET ( 1, 0, .AHEAD. ) ;
#118 = CARTESIAN_POINT ( 'NONE',  ( 1.085688354626984594E-14, 1.124819836996392522E-32, 3.109535034738912351 ) ) ;
#119 = ADVANCED_FACE ( 'NONE', ( #192, #65 ), #101, .T. ) ;
#120 = FACE_OUTER_BOUND ( 'NONE', #81, .T. ) ;
#121 = AXIS2_PLACEMENT_3D ( 'NONE', #151, #194, #163 ) ;
#122 =( NAMED_UNIT ( * ) SI_UNIT ( $, .STERADIAN. ) SOLID_ANGLE_UNIT ( ) );
#123 = ORIENTED_EDGE ( 'NONE', *, *, #8, .F. ) ;
#124 = EDGE_LOOP ( 'NONE', ( #14 ) ) ;
#125 = EDGE_LOOP ( 'NONE', ( #144 ) ) ;
#126 = PERSON_AND_ORGANIZATION_ROLE ( 'design_owner' ) ;
#127 = DIRECTION ( 'NONE',  ( 3.491481338843133355E-15, -1.224646799147353207E-16, 1.000000000000000000 ) ) ;
#128 = APPROVAL_ROLE ( '' ) ;
#129 = DIRECTION ( 'NONE',  ( 0.0000000000000000000, 1.000000000000000000, 0.0000000000000000000 ) ) ;
#130 = AXIS2_PLACEMENT_3D ( 'NONE', #191, #112, #193 ) ;
#131 = PERSON ( 'UNSPECIFIED', 'UNSPECIFIED', 'UNSPECIFIED', ('UNSPECIFIED'), ('UNSPECIFIED'), ('UNSPECIFIED') ) ;
#132 = DIRECTION ( 'NONE',  ( -3.491481338843133355E-15, 1.224646799147353207E-16, -1.000000000000000000 ) ) ;
#133 = ADVANCED_FACE ( 'NONE', ( #111 ), #113, .F. ) ;
#134 = FACE_OUTER_BOUND ( 'NONE', #172, .T. ) ;
#135 = MANIFOLD_SOLID_BREP ( 'Corps-Déplacer/Copier1[1]', #26 ) ;
#136 = MANIFOLD_SOLID_BREP ( 'Corps-Déplacer/Copier1[2]', #174 ) ;
#137 = CC_DESIGN_SECURITY_CLASSIFICATION ( #30, ( #24 ) ) ;
#138 = VERTEX_POINT ( 'NONE', #60 ) ;
#139 = DIRECTION ( 'NONE',  ( 0.0000000000000000000, 1.000000000000000000, 0.0000000000000000000 ) ) ;
#140 = CONICAL_SURFACE ( 'NONE', #91, 1.499999999999999778, 0.4363323129985759996 ) ;
#141 = ADVANCED_BREP_SHAPE_REPRESENTATION ( '326674', ( #135, #136, #130 ), #79 ) ;
#142 = EDGE_LOOP ( 'NONE', ( #11 ) ) ;
#143 = PERSON_AND_ORGANIZATION_ROLE ( 'creator' ) ;
#144 = ORIENTED_EDGE ( 'NONE', *, *, #152, .F. ) ;
#145 = PERSON_AND_ORGANIZATION_ROLE ( 'classification_officer' ) ;
#146 = AXIS2_PLACEMENT_3D ( 'NONE', #7, #132, #108 ) ;
#147 = DIRECTION ( 'NONE',  ( 4.275831445896958607E-31, 1.000000000000000000, 1.224646799147353207E-16 ) ) ;
#148 = PERSON_AND_ORGANIZATION ( #131, #185 ) ;
#149 = PERSON_AND_ORGANIZATION ( #131, #185 ) ;
#150 = DIRECTION ( 'NONE',  ( -4.275831445896958607E-31, -1.000000000000000000, -1.224646799147353207E-16 ) ) ;
#151 = CARTESIAN_POINT ( 'NONE',  ( 1.085688354626984594E-14, -3.808082127129562511E-16, 3.109535034738912351 ) ) ;
#152 = EDGE_CURVE ( 'NONE', #13, #13, #9, .T. ) ;
#153 = LOCAL_TIME ( 11, 21, 34.00000000000000000, #63 ) ;
#154 = DIRECTION ( 'NONE',  ( -4.275831445896958607E-31, -1.000000000000000000, -1.224646799147353207E-16 ) ) ;
#155 = ORIENTED_EDGE ( 'NONE', *, *, #152, .T. ) ;
#156 = APPROVAL_PERSON_ORGANIZATION ( #148, #25, #128 ) ;
#157 = EDGE_LOOP ( 'NONE', ( #123 ) ) ;
#158 = EDGE_LOOP ( 'NONE', ( #78 ) ) ;
#159 = AXIS2_PLACEMENT_3D ( 'NONE', #115, #82, #103 ) ;
#160 = LOCAL_TIME ( 11, 21, 34.00000000000000000, #117 ) ;
#161 = APPROVAL_DATE_TIME ( #23, #36 ) ;
#162 = PERSON_AND_ORGANIZATION ( #131, #185 ) ;
#163 = DIRECTION ( 'NONE',  ( 0.0000000000000000000, 1.000000000000000000, 0.0000000000000000000 ) ) ;
#164 = CALENDAR_DATE ( 2021, 22, 11 ) ;
#165 = AXIS2_PLACEMENT_3D ( 'NONE', #178, #17, #147 ) ;
#166 = APPLICATION_CONTEXT ( 'configuration controlled 3d designs of mechanical parts and assemblies' ) ;
#167 = DIRECTION ( 'NONE',  ( -3.491481338843133355E-15, 1.224646799147353207E-16, -1.000000000000000000 ) ) ;
#168 = DIRECTION ( 'NONE',  ( 3.491481338843133355E-15, -1.224646799147353207E-16, 1.000000000000000000 ) ) ;
#169 = DIRECTION ( 'NONE',  ( 3.491481338843133355E-15, -1.224646799147353207E-16, 1.000000000000000000 ) ) ;
#170 = CC_DESIGN_PERSON_AND_ORGANIZATION_ASSIGNMENT ( #4, #176, ( #24 ) ) ;
#171 = CC_DESIGN_PERSON_AND_ORGANIZATION_ASSIGNMENT ( #64, #143, ( #199 ) ) ;
#172 = EDGE_LOOP ( 'NONE', ( #155 ) ) ;
#173 = ORIENTED_EDGE ( 'NONE', *, *, #8, .T. ) ;
#174 = CLOSED_SHELL ( 'NONE', ( #195, #83, #177 ) ) ;
#175 = CALENDAR_DATE ( 2021, 22, 11 ) ;
#176 = PERSON_AND_ORGANIZATION_ROLE ( 'creator' ) ;
#177 = ADVANCED_FACE ( 'NONE', ( #120 ), #183, .T. ) ;
#178 = CARTESIAN_POINT ( 'NONE',  ( -9.549558314589943416E-33, 3.349534162799945171E-34, -2.735102206719538795E-18 ) ) ;
#179 = COORDINATED_UNIVERSAL_TIME_OFFSET ( 1, 0, .AHEAD. ) ;
#180 = CC_DESIGN_PERSON_AND_ORGANIZATION_ASSIGNMENT ( #31, #145, ( #30 ) ) ;
#181 = APPROVAL_ROLE ( '' ) ;
#182 = AXIS2_PLACEMENT_3D ( 'NONE', #203, #76, #139 ) ;
#183 = PLANE ( 'NONE',  #72 ) ;
#184 = CARTESIAN_POINT ( 'NONE',  ( 1.316288464743861212E-13, 1.499999999999995559, 37.69999999999999574 ) ) ;
#185 = ORGANIZATION ( 'UNSPECIFIED', 'UNSPECIFIED', '' ) ;
#186 = AXIS2_PLACEMENT_3D ( 'NONE', #43, #169, #71 ) ;
#187 = CARTESIAN_POINT ( 'NONE',  ( 1.085688354626984594E-14, 1.499999999999999334, 3.109535034738912351 ) ) ;
#188 = ORIENTED_EDGE ( 'NONE', *, *, #53, .T. ) ;
#189 = DATE_AND_TIME ( #164, #10 ) ;
#190 = FACE_BOUND ( 'NONE', #125, .T. ) ;
#191 = CARTESIAN_POINT ( 'NONE',  ( 0.0000000000000000000, 0.0000000000000000000, 0.0000000000000000000 ) ) ;
#192 = FACE_OUTER_BOUND ( 'NONE', #47, .T. ) ;
#193 = DIRECTION ( 'NONE',  ( 1.000000000000000000, 0.0000000000000000000, 0.0000000000000000000 ) ) ;
#194 = DIRECTION ( 'NONE',  ( -3.491481338843133355E-15, 1.224646799147353207E-16, -1.000000000000000000 ) ) ;
#195 = ADVANCED_FACE ( 'NONE', ( #134 ), #201, .F. ) ;
#196 = DATE_AND_TIME ( #175, #29 ) ;
#197 = CARTESIAN_POINT ( 'NONE',  ( 1.085688354626984594E-14, -3.808082127129562511E-16, 3.109535034738912351 ) ) ;
#198 = PRODUCT_DEFINITION_SHAPE ( 'NONE', 'NONE',  #199 ) ;
#199 = PRODUCT_DEFINITION ( 'UNKNOWN', '', #24, #50 ) ;
#200 = SHAPE_DEFINITION_REPRESENTATION ( #198, #141 ) ;
#201 = PLANE ( 'NONE',  #186 ) ;
#202 = CARTESIAN_POINT ( 'NONE',  ( 1.326762908760390423E-13, 1.199999999999995515, 38.00000000000000000 ) ) ;
#203 = CARTESIAN_POINT ( 'NONE',  ( 1.326762908760390423E-13, -4.653657836759941941E-15, 38.00000000000000000 ) ) ;
ENDSEC;
END-ISO-10303-21;
