ISO-10303-21;
HEADER;
FILE_DESCRIPTION (( 'STEP AP203' ),
    '1' );
FILE_NAME ('326673.step',
    '2021-11-22T10:21:34',
    ( '' ),
    ( '' ),
    'SwSTEP 2.0',
    'SolidWorks 2019',
    '' );
FILE_SCHEMA (( 'CONFIG_CONTROL_DESIGN' ));
ENDSEC;

DATA;
#1 = MANIFOLD_SOLID_BREP ( 'Corps-Déplacer/Copier1[2]', #163 ) ;
#2 = APPROVAL_DATE_TIME ( #82, #189 ) ;
#3 = APPROVAL_STATUS ( 'not_yet_approved' ) ;
#4 = LOCAL_TIME ( 11, 21, 34.00000000000000000, #115 ) ;
#5 = PRODUCT_DEFINITION ( 'UNKNOWN', '', #120, #21 ) ;
#6 = AXIS2_PLACEMENT_3D ( 'NONE', #76, #121, #105 ) ;
#7 = DIRECTION ( 'NONE',  ( -4.275831445896958607E-31, -1.000000000000000000, -1.224646799147353207E-16 ) ) ;
#8 = FACE_OUTER_BOUND ( 'NONE', #44, .T. ) ;
#9 = CARTESIAN_POINT ( 'NONE',  ( 0.0000000000000000000, 0.0000000000000000000, 0.0000000000000000000 ) ) ;
#10 = DIRECTION ( 'NONE',  ( -3.491481338843133355E-15, 1.224646799147353207E-16, -1.000000000000000000 ) ) ;
#11 = ORIENTED_EDGE ( 'NONE', *, *, #192, .T. ) ;
#12 = FACE_OUTER_BOUND ( 'NONE', #138, .T. ) ;
#13 = APPROVAL ( #3, 'UNSPECIFIED' ) ;
#14 = DIRECTION ( 'NONE',  ( 0.0000000000000000000, 0.0000000000000000000, 1.000000000000000000 ) ) ;
#15 = PERSON_AND_ORGANIZATION_ROLE ( 'classification_officer' ) ;
#16 = PERSON_AND_ORGANIZATION ( #145, #61 ) ;
#17 = DATE_TIME_ROLE ( 'classification_date' ) ;
#18 = CC_DESIGN_APPROVAL ( #127, ( #120 ) ) ;
#19 = CARTESIAN_POINT ( 'NONE',  ( 1.093175860520964000E-14, 1.499999999999999778, 3.130980103944008608 ) ) ;
#20 = DIRECTION ( 'NONE',  ( -3.491481338843133355E-15, 1.224646799147353207E-16, -1.000000000000000000 ) ) ;
#21 = DESIGN_CONTEXT ( 'detailed design', #66, 'design' ) ;
#22 = FACE_OUTER_BOUND ( 'NONE', #197, .T. ) ;
#23 = CC_DESIGN_APPROVAL ( #189, ( #5 ) ) ;
#24 = EDGE_LOOP ( 'NONE', ( #91 ) ) ;
#25 = DIRECTION ( 'NONE',  ( 4.275831445896958607E-31, 1.000000000000000000, 1.224646799147353207E-16 ) ) ;
#26 = CC_DESIGN_PERSON_AND_ORGANIZATION_ASSIGNMENT ( #35, #156, ( #5 ) ) ;
#27 = DIRECTION ( 'NONE',  ( 3.491481338843133355E-15, -1.224646799147353207E-16, 1.000000000000000000 ) ) ;
#28 = PERSON_AND_ORGANIZATION_ROLE ( 'design_supplier' ) ;
#29 = SECURITY_CLASSIFICATION ( '', '', #158 ) ;
#30 = APPROVAL_DATE_TIME ( #129, #127 ) ;
#31 = PERSON_AND_ORGANIZATION ( #145, #61 ) ;
#32 = SHAPE_DEFINITION_REPRESENTATION ( #96, #50 ) ;
#33 = APPLICATION_CONTEXT ( 'configuration controlled 3d designs of mechanical parts and assemblies' ) ;
#34 = AXIS2_PLACEMENT_3D ( 'NONE', #45, #54, #135 ) ;
#35 = PERSON_AND_ORGANIZATION ( #145, #61 ) ;
#36 = AXIS2_PLACEMENT_3D ( 'NONE', #83, #14, #62 ) ;
#37 = CARTESIAN_POINT ( 'NONE',  ( 1.093175860520964000E-14, -3.834344762489077069E-16, 3.130980103944008608 ) ) ;
#38 = EDGE_CURVE ( 'NONE', #109, #109, #177, .T. ) ;
#39 = FACE_OUTER_BOUND ( 'NONE', #89, .T. ) ;
#40 = FACE_BOUND ( 'NONE', #170, .T. ) ;
#41 = EDGE_LOOP ( 'NONE', ( #75 ) ) ;
#42 = FACE_BOUND ( 'NONE', #155, .T. ) ;
#43 = CIRCLE ( 'NONE', #34, 0.04000000000000025063 ) ;
#44 = EDGE_LOOP ( 'NONE', ( #106 ) ) ;
#45 = CARTESIAN_POINT ( 'NONE',  ( -5.273726868693183263E-33, 1.849774380138157440E-34, -1.510455407572242418E-18 ) ) ;
#46 = CALENDAR_DATE ( 2021, 22, 11 ) ;
#47 = APPROVAL_STATUS ( 'not_yet_approved' ) ;
#48 = CLOSED_SHELL ( 'NONE', ( #100, #65, #174, #117 ) ) ;
#49 = APPROVAL_ROLE ( '' ) ;
#50 = ADVANCED_BREP_SHAPE_REPRESENTATION ( '326673', ( #196, #1, #36 ), #200 ) ;
#51 = DATE_AND_TIME ( #131, #116 ) ;
#52 = CC_DESIGN_DATE_AND_TIME_ASSIGNMENT ( #142, #17, ( #29 ) ) ;
#53 = CC_DESIGN_SECURITY_CLASSIFICATION ( #29, ( #120 ) ) ;
#54 = DIRECTION ( 'NONE',  ( -3.491481338843133355E-15, 1.224646799147353207E-16, -1.000000000000000000 ) ) ;
#55 = AXIS2_PLACEMENT_3D ( 'NONE', #57, #90, #183 ) ;
#56 = DIRECTION ( 'NONE',  ( 0.0000000000000000000, 1.000000000000000000, 0.0000000000000000000 ) ) ;
#57 = CARTESIAN_POINT ( 'NONE',  ( -2.636863434346591631E-33, 9.248871900690787200E-35, -7.552277037861212091E-19 ) ) ;
#58 = ORIENTED_EDGE ( 'NONE', *, *, #149, .T. ) ;
#59 = DIRECTION ( 'NONE',  ( -3.491481338843133355E-15, 1.224646799147353207E-16, -1.000000000000000000 ) ) ;
#60 = FACE_OUTER_BOUND ( 'NONE', #41, .T. ) ;
#61 = ORGANIZATION ( 'UNSPECIFIED', 'UNSPECIFIED', '' ) ;
#62 = DIRECTION ( 'NONE',  ( 1.000000000000000000, 0.0000000000000000000, 0.0000000000000000000 ) ) ;
#63 = APPROVAL_PERSON_ORGANIZATION ( #16, #127, #49 ) ;
#64 = COORDINATED_UNIVERSAL_TIME_OFFSET ( 1, 0, .AHEAD. ) ;
#65 = ADVANCED_FACE ( 'NONE', ( #22, #39 ), #88, .T. ) ;
#66 = APPLICATION_CONTEXT ( 'configuration controlled 3d designs of mechanical parts and assemblies' ) ;
#67 = AXIS2_PLACEMENT_3D ( 'NONE', #165, #74, #7 ) ;
#68 = APPROVAL_PERSON_ORGANIZATION ( #143, #13, #203 ) ;
#69 = PLANE ( 'NONE',  #134 ) ;
#70 = ADVANCED_FACE ( 'NONE', ( #152 ), #124, .F. ) ;
#71 = CARTESIAN_POINT ( 'NONE',  ( 1.316288464743861212E-13, -4.616918432785521081E-15, 37.69999999999999574 ) ) ;
#72 = CC_DESIGN_APPROVAL ( #13, ( #29 ) ) ;
#73 = PRODUCT ( '326673', '326673', '', ( #130 ) ) ;
#74 = DIRECTION ( 'NONE',  ( 3.491481338843133355E-15, -1.224646799147353207E-16, 1.000000000000000000 ) ) ;
#75 = ORIENTED_EDGE ( 'NONE', *, *, #38, .T. ) ;
#76 = CARTESIAN_POINT ( 'NONE',  ( 1.316288464743861212E-13, -4.616918432785521081E-15, 37.69999999999999574 ) ) ;
#77 = VERTEX_POINT ( 'NONE', #171 ) ;
#78 = CALENDAR_DATE ( 2021, 22, 11 ) ;
#79 = AXIS2_PLACEMENT_3D ( 'NONE', #182, #119, #150 ) ;
#80 = COORDINATED_UNIVERSAL_TIME_OFFSET ( 1, 0, .AHEAD. ) ;
#81 = ADVANCED_FACE ( 'NONE', ( #40, #148 ), #99, .T. ) ;
#82 = DATE_AND_TIME ( #46, #4 ) ;
#83 = CARTESIAN_POINT ( 'NONE',  ( 0.0000000000000000000, 0.0000000000000000000, 0.0000000000000000000 ) ) ;
#84 = AXIS2_PLACEMENT_3D ( 'NONE', #9, #86, #187 ) ;
#85 = CC_DESIGN_PERSON_AND_ORGANIZATION_ASSIGNMENT ( #111, #28, ( #120 ) ) ;
#86 = DIRECTION ( 'NONE',  ( -3.491481338843133355E-15, 1.224646799147353207E-16, -1.000000000000000000 ) ) ;
#87 = AXIS2_PLACEMENT_3D ( 'NONE', #71, #20, #56 ) ;
#88 = CYLINDRICAL_SURFACE ( 'NONE', #84, 1.500000000000000000 ) ;
#89 = EDGE_LOOP ( 'NONE', ( #125 ) ) ;
#90 = DIRECTION ( 'NONE',  ( 3.491481338843133355E-15, -1.224646799147353207E-16, 1.000000000000000000 ) ) ;
#91 = ORIENTED_EDGE ( 'NONE', *, *, #110, .T. ) ;
#92 = VERTEX_POINT ( 'NONE', #133 ) ;
#93 = CC_DESIGN_PERSON_AND_ORGANIZATION_ASSIGNMENT ( #113, #15, ( #29 ) ) ;
#94 = AXIS2_PLACEMENT_3D ( 'NONE', #137, #59, #140 ) ;
#95 = PERSON_AND_ORGANIZATION_ROLE ( 'creator' ) ;
#96 = PRODUCT_DEFINITION_SHAPE ( 'NONE', 'NONE',  #5 ) ;
#97 = CALENDAR_DATE ( 2021, 22, 11 ) ;
#98 = COORDINATED_UNIVERSAL_TIME_OFFSET ( 1, 0, .AHEAD. ) ;
#99 = CONICAL_SURFACE ( 'NONE', #107, 1.500000000000000222, 0.4363323129985758886 ) ;
#100 = ADVANCED_FACE ( 'NONE', ( #60 ), #166, .F. ) ;
#101 = CIRCLE ( 'NONE', #94, 1.200000000000000178 ) ;
#102 = CIRCLE ( 'NONE', #157, 1.500000000000000222 ) ;
#103 = FACE_OUTER_BOUND ( 'NONE', #123, .T. ) ;
#104 = CARTESIAN_POINT ( 'NONE',  ( 1.326762908760390423E-13, 8.998558695971078593E-33, 38.00000000000000000 ) ) ;
#105 = DIRECTION ( 'NONE',  ( 0.0000000000000000000, 1.000000000000000000, 0.0000000000000000000 ) ) ;
#106 = ORIENTED_EDGE ( 'NONE', *, *, #149, .F. ) ;
#107 = AXIS2_PLACEMENT_3D ( 'NONE', #199, #195, #180 ) ;
#108 = CARTESIAN_POINT ( 'NONE',  ( 1.093175860520964000E-14, 1.499999999999999778, 3.130980103944008608 ) ) ;
#109 = VERTEX_POINT ( 'NONE', #19 ) ;
#110 = EDGE_CURVE ( 'NONE', #193, #193, #102, .T. ) ;
#111 = PERSON_AND_ORGANIZATION ( #145, #61 ) ;
#112 = COORDINATED_UNIVERSAL_TIME_OFFSET ( 1, 0, .AHEAD. ) ;
#113 = PERSON_AND_ORGANIZATION ( #145, #61 ) ;
#114 = APPROVAL_DATE_TIME ( #51, #13 ) ;
#115 = COORDINATED_UNIVERSAL_TIME_OFFSET ( 1, 0, .AHEAD. ) ;
#116 = LOCAL_TIME ( 11, 21, 34.00000000000000000, #64 ) ;
#117 = ADVANCED_FACE ( 'NONE', ( #103 ), #69, .F. ) ;
#118 = CONICAL_SURFACE ( 'NONE', #6, 1.500000000000000000, 0.7853981633974453924 ) ;
#119 = DIRECTION ( 'NONE',  ( -3.491481338843133355E-15, 1.224646799147353207E-16, -1.000000000000000000 ) ) ;
#120 = PRODUCT_DEFINITION_FORMATION_WITH_SPECIFIED_SOURCE ( 'ANY', '', #73, .NOT_KNOWN. ) ;
#121 = DIRECTION ( 'NONE',  ( -3.491481338843133355E-15, 1.224646799147353207E-16, -1.000000000000000000 ) ) ;
#122 = DIRECTION ( 'NONE',  ( -3.491481338843133355E-15, 1.224646799147353207E-16, -1.000000000000000000 ) ) ;
#123 = EDGE_LOOP ( 'NONE', ( #136 ) ) ;
#124 = PLANE ( 'NONE',  #55 ) ;
#125 = ORIENTED_EDGE ( 'NONE', *, *, #38, .F. ) ;
#126 = PLANE ( 'NONE',  #67 ) ;
#127 = APPROVAL ( #47, 'UNSPECIFIED' ) ;
#128 = CALENDAR_DATE ( 2021, 22, 11 ) ;
#129 = DATE_AND_TIME ( #128, #147 ) ;
#130 = MECHANICAL_CONTEXT ( 'NONE', #33, 'mechanical' ) ;
#131 = CALENDAR_DATE ( 2021, 22, 11 ) ;
#132 = CC_DESIGN_PERSON_AND_ORGANIZATION_ASSIGNMENT ( #31, #95, ( #120 ) ) ;
#133 = CARTESIAN_POINT ( 'NONE',  ( 1.182959891489475848E-32, 0.04000000000000025063, 3.388131789017201356E-18 ) ) ;
#134 = AXIS2_PLACEMENT_3D ( 'NONE', #104, #10, #25 ) ;
#135 = DIRECTION ( 'NONE',  ( 4.275831445896958607E-31, 1.000000000000000000, 1.224646799147353207E-16 ) ) ;
#136 = ORIENTED_EDGE ( 'NONE', *, *, #192, .F. ) ;
#137 = CARTESIAN_POINT ( 'NONE',  ( 1.326762908760390423E-13, -4.653657836759941941E-15, 38.00000000000000000 ) ) ;
#138 = EDGE_LOOP ( 'NONE', ( #184 ) ) ;
#139 = ADVANCED_FACE ( 'NONE', ( #12 ), #126, .T. ) ;
#140 = DIRECTION ( 'NONE',  ( 0.0000000000000000000, 1.000000000000000000, 0.0000000000000000000 ) ) ;
#141 = DATE_TIME_ROLE ( 'creation_date' ) ;
#142 = DATE_AND_TIME ( #97, #146 ) ;
#143 = PERSON_AND_ORGANIZATION ( #145, #61 ) ;
#144 = PERSON_AND_ORGANIZATION_ROLE ( 'design_owner' ) ;
#145 = PERSON ( 'UNSPECIFIED', 'UNSPECIFIED', 'UNSPECIFIED', ('UNSPECIFIED'), ('UNSPECIFIED'), ('UNSPECIFIED') ) ;
#146 = LOCAL_TIME ( 11, 21, 34.00000000000000000, #80 ) ;
#147 = LOCAL_TIME ( 11, 21, 34.00000000000000000, #98 ) ;
#148 = FACE_OUTER_BOUND ( 'NONE', #24, .T. ) ;
#149 = EDGE_CURVE ( 'NONE', #169, #169, #173, .T. ) ;
#150 = DIRECTION ( 'NONE',  ( 0.0000000000000000000, 1.000000000000000000, 0.0000000000000000000 ) ) ;
#151 = UNCERTAINTY_MEASURE_WITH_UNIT (LENGTH_MEASURE( 1.000000000000000082E-05 ), #194, 'distance_accuracy_value', 'NONE');
#152 = FACE_OUTER_BOUND ( 'NONE', #186, .T. ) ;
#153 = ORIENTED_EDGE ( 'NONE', *, *, #202, .F. ) ;
#154 = CARTESIAN_POINT ( 'NONE',  ( 1.316288464743861212E-13, 1.499999999999995559, 37.69999999999999574 ) ) ;
#155 = EDGE_LOOP ( 'NONE', ( #11 ) ) ;
#156 = PERSON_AND_ORGANIZATION_ROLE ( 'creator' ) ;
#157 = AXIS2_PLACEMENT_3D ( 'NONE', #37, #122, #167 ) ;
#158 = SECURITY_CLASSIFICATION_LEVEL ( 'unclassified' ) ;
#159 = AXIS2_PLACEMENT_3D ( 'NONE', #198, #27, #185 ) ;
#160 =( NAMED_UNIT ( * ) SI_UNIT ( $, .STERADIAN. ) SOLID_ANGLE_UNIT ( ) );
#161 = CC_DESIGN_DATE_AND_TIME_ASSIGNMENT ( #172, #141, ( #5 ) ) ;
#162 = LOCAL_TIME ( 11, 21, 34.00000000000000000, #112 ) ;
#163 = CLOSED_SHELL ( 'NONE', ( #70, #81, #139 ) ) ;
#164 = CC_DESIGN_PERSON_AND_ORGANIZATION_ASSIGNMENT ( #175, #144, ( #73 ) ) ;
#165 = CARTESIAN_POINT ( 'NONE',  ( 1.093175860520963843E-14, 1.124819836996392795E-32, 3.130980103944008164 ) ) ;
#166 = PLANE ( 'NONE',  #159 ) ;
#167 = DIRECTION ( 'NONE',  ( 0.0000000000000000000, 1.000000000000000000, 0.0000000000000000000 ) ) ;
#168 = ORIENTED_EDGE ( 'NONE', *, *, #202, .T. ) ;
#169 = VERTEX_POINT ( 'NONE', #154 ) ;
#170 = EDGE_LOOP ( 'NONE', ( #153 ) ) ;
#171 = CARTESIAN_POINT ( 'NONE',  ( 1.326762908760390423E-13, 1.199999999999995515, 38.00000000000000000 ) ) ;
#172 = DATE_AND_TIME ( #78, #162 ) ;
#173 = CIRCLE ( 'NONE', #87, 1.500000000000000000 ) ;
#174 = ADVANCED_FACE ( 'NONE', ( #42, #8 ), #118, .T. ) ;
#175 = PERSON_AND_ORGANIZATION ( #145, #61 ) ;
#176 = APPROVAL_ROLE ( '' ) ;
#177 = CIRCLE ( 'NONE', #79, 1.500000000000000222 ) ;
#178 =( NAMED_UNIT ( * ) PLANE_ANGLE_UNIT ( ) SI_UNIT ( $, .RADIAN. ) );
#179 = PRODUCT_RELATED_PRODUCT_CATEGORY ( 'detail', '', ( #73 ) ) ;
#180 = DIRECTION ( 'NONE',  ( 0.0000000000000000000, -1.000000000000000000, 0.0000000000000000000 ) ) ;
#181 = APPROVAL_PERSON_ORGANIZATION ( #191, #189, #176 ) ;
#182 = CARTESIAN_POINT ( 'NONE',  ( 1.093175860520964000E-14, -3.834344762489077069E-16, 3.130980103944008608 ) ) ;
#183 = DIRECTION ( 'NONE',  ( -4.275831445896958607E-31, -1.000000000000000000, -1.224646799147353207E-16 ) ) ;
#184 = ORIENTED_EDGE ( 'NONE', *, *, #110, .F. ) ;
#185 = DIRECTION ( 'NONE',  ( -4.275831445896958607E-31, -1.000000000000000000, -1.224646799147353207E-16 ) ) ;
#186 = EDGE_LOOP ( 'NONE', ( #168 ) ) ;
#187 = DIRECTION ( 'NONE',  ( 4.275831445896959482E-31, 1.000000000000000000, 1.224646799147353207E-16 ) ) ;
#188 = APPLICATION_PROTOCOL_DEFINITION ( 'international standard', 'config_control_design', 1994, #33 ) ;
#189 = APPROVAL ( #190, 'UNSPECIFIED' ) ;
#190 = APPROVAL_STATUS ( 'not_yet_approved' ) ;
#191 = PERSON_AND_ORGANIZATION ( #145, #61 ) ;
#192 = EDGE_CURVE ( 'NONE', #77, #77, #101, .T. ) ;
#193 = VERTEX_POINT ( 'NONE', #108 ) ;
#194 =( LENGTH_UNIT ( ) NAMED_UNIT ( * ) SI_UNIT ( .MILLI., .METRE. ) );
#195 = DIRECTION ( 'NONE',  ( 3.491481338843133355E-15, -1.224646799147353207E-16, 1.000000000000000000 ) ) ;
#196 = MANIFOLD_SOLID_BREP ( 'Corps-Déplacer/Copier1[1]', #48 ) ;
#197 = EDGE_LOOP ( 'NONE', ( #58 ) ) ;
#198 = CARTESIAN_POINT ( 'NONE',  ( 1.093175860520963843E-14, 1.124819836996392795E-32, 3.130980103944008164 ) ) ;
#199 = CARTESIAN_POINT ( 'NONE',  ( 1.093175860520964000E-14, -3.834344762489077069E-16, 3.130980103944008608 ) ) ;
#200 =( GEOMETRIC_REPRESENTATION_CONTEXT ( 3 ) GLOBAL_UNCERTAINTY_ASSIGNED_CONTEXT ( ( #151 ) ) GLOBAL_UNIT_ASSIGNED_CONTEXT ( ( #194, #178, #160 ) ) REPRESENTATION_CONTEXT ( 'NONE', 'WORKASPACE' ) );
#201 = APPLICATION_PROTOCOL_DEFINITION ( 'international standard', 'config_control_design', 1994, #66 ) ;
#202 = EDGE_CURVE ( 'NONE', #92, #92, #43, .T. ) ;
#203 = APPROVAL_ROLE ( '' ) ;
ENDSEC;
END-ISO-10303-21;
