ISO-10303-21;
HEADER;
FILE_DESCRIPTION (( 'STEP AP203' ),
    '1' );
FILE_NAME ('326672.step',
    '2021-11-22T10:21:33',
    ( '' ),
    ( '' ),
    'SwSTEP 2.0',
    'SolidWorks 2019',
    '' );
FILE_SCHEMA (( 'CONFIG_CONTROL_DESIGN' ));
ENDSEC;

DATA;
#1 = DIRECTION ( 'NONE',  ( 0.0000000000000000000, 1.000000000000000000, 0.0000000000000000000 ) ) ;
#2 = DIRECTION ( 'NONE',  ( 0.0000000000000000000, 1.000000000000000000, 0.0000000000000000000 ) ) ;
#3 = CARTESIAN_POINT ( 'NONE',  ( 1.096919613467953309E-14, -9.083308869374977500E-16, 3.141702638546555626 ) ) ;
#4 = EDGE_CURVE ( 'NONE', #140, #140, #26, .T. ) ;
#5 = DIRECTION ( 'NONE',  ( -3.491481338843133355E-15, 1.224646799147353207E-16, -1.000000000000000000 ) ) ;
#6 = CARTESIAN_POINT ( 'NONE',  ( 0.0000000000000000000, 0.0000000000000000000, 0.0000000000000000000 ) ) ;
#7 = PERSON_AND_ORGANIZATION ( #11, #91 ) ;
#8 = PERSON_AND_ORGANIZATION_ROLE ( 'classification_officer' ) ;
#9 =( GEOMETRIC_REPRESENTATION_CONTEXT ( 3 ) GLOBAL_UNCERTAINTY_ASSIGNED_CONTEXT ( ( #14 ) ) GLOBAL_UNIT_ASSIGNED_CONTEXT ( ( #103, #16, #177 ) ) REPRESENTATION_CONTEXT ( 'NONE', 'WORKASPACE' ) );
#10 = DATE_AND_TIME ( #157, #95 ) ;
#11 = PERSON ( 'UNSPECIFIED', 'UNSPECIFIED', 'UNSPECIFIED', ('UNSPECIFIED'), ('UNSPECIFIED'), ('UNSPECIFIED') ) ;
#12 = APPROVAL_PERSON_ORGANIZATION ( #66, #118, #81 ) ;
#13 = EDGE_LOOP ( 'NONE', ( #43 ) ) ;
#14 = UNCERTAINTY_MEASURE_WITH_UNIT (LENGTH_MEASURE( 1.000000000000000082E-05 ), #103, 'distance_accuracy_value', 'NONE');
#15 = EDGE_LOOP ( 'NONE', ( #27 ) ) ;
#16 =( NAMED_UNIT ( * ) PLANE_ANGLE_UNIT ( ) SI_UNIT ( $, .RADIAN. ) );
#17 = CARTESIAN_POINT ( 'NONE',  ( 0.0000000000000000000, 0.03500000000000025313, 0.0000000000000000000 ) ) ;
#18 = FACE_OUTER_BOUND ( 'NONE', #167, .T. ) ;
#19 = DIRECTION ( 'NONE',  ( -3.491481338843133355E-15, 1.224646799147353207E-16, -1.000000000000000000 ) ) ;
#20 = DIRECTION ( 'NONE',  ( -3.491481338843133355E-15, 1.224646799147353207E-16, -1.000000000000000000 ) ) ;
#21 = PERSON_AND_ORGANIZATION ( #11, #91 ) ;
#22 = PRODUCT_DEFINITION ( 'UNKNOWN', '', #117, #148 ) ;
#23 = COORDINATED_UNIVERSAL_TIME_OFFSET ( 1, 0, .AHEAD. ) ;
#24 = FACE_OUTER_BOUND ( 'NONE', #116, .T. ) ;
#25 = LOCAL_TIME ( 11, 21, 33.00000000000000000, #197 ) ;
#26 = CIRCLE ( 'NONE', #52, 0.03500000000000025313 ) ;
#27 = ORIENTED_EDGE ( 'NONE', *, *, #4, .F. ) ;
#28 = CLOSED_SHELL ( 'NONE', ( #30, #67, #188, #74 ) ) ;
#29 = PLANE ( 'NONE',  #44 ) ;
#30 = ADVANCED_FACE ( 'NONE', ( #24 ), #183, .F. ) ;
#31 = DIRECTION ( 'NONE',  ( -4.275831445896958607E-31, -1.000000000000000000, -1.224646799147353207E-16 ) ) ;
#32 = CARTESIAN_POINT ( 'NONE',  ( 1.096919613467953467E-14, -3.847476080168833854E-16, 3.141702638546556070 ) ) ;
#33 = AXIS2_PLACEMENT_3D ( 'NONE', #61, #19, #1 ) ;
#34 = CARTESIAN_POINT ( 'NONE',  ( 1.326762908760390423E-13, 1.199999999999995515, 38.00000000000000000 ) ) ;
#35 = CARTESIAN_POINT ( 'NONE',  ( 1.096919613467953467E-14, 1.499999999999999778, 3.141702638546556070 ) ) ;
#36 = DATE_AND_TIME ( #154, #25 ) ;
#37 = CC_DESIGN_APPROVAL ( #118, ( #117 ) ) ;
#38 = APPROVAL_DATE_TIME ( #194, #109 ) ;
#39 = EDGE_CURVE ( 'NONE', #63, #63, #129, .T. ) ;
#40 = PERSON_AND_ORGANIZATION_ROLE ( 'design_owner' ) ;
#41 = CC_DESIGN_DATE_AND_TIME_ASSIGNMENT ( #10, #69, ( #22 ) ) ;
#42 = CC_DESIGN_APPROVAL ( #56, ( #195 ) ) ;
#43 = ORIENTED_EDGE ( 'NONE', *, *, #57, .T. ) ;
#44 = AXIS2_PLACEMENT_3D ( 'NONE', #3, #174, #31 ) ;
#45 = DIRECTION ( 'NONE',  ( -3.491481338843133355E-15, 1.224646799147353207E-16, -1.000000000000000000 ) ) ;
#46 = VERTEX_POINT ( 'NONE', #35 ) ;
#47 = VERTEX_POINT ( 'NONE', #34 ) ;
#48 = CC_DESIGN_SECURITY_CLASSIFICATION ( #195, ( #117 ) ) ;
#49 = FACE_OUTER_BOUND ( 'NONE', #102, .T. ) ;
#50 = PERSON_AND_ORGANIZATION_ROLE ( 'creator' ) ;
#51 = AXIS2_PLACEMENT_3D ( 'NONE', #128, #159, #98 ) ;
#52 = AXIS2_PLACEMENT_3D ( 'NONE', #101, #166, #163 ) ;
#53 = APPROVAL_ROLE ( '' ) ;
#54 = CC_DESIGN_PERSON_AND_ORGANIZATION_ASSIGNMENT ( #160, #50, ( #22 ) ) ;
#55 = ORIENTED_EDGE ( 'NONE', *, *, #86, .F. ) ;
#56 = APPROVAL ( #123, 'UNSPECIFIED' ) ;
#57 = EDGE_CURVE ( 'NONE', #124, #124, #172, .T. ) ;
#58 = EDGE_LOOP ( 'NONE', ( #119 ) ) ;
#59 = EDGE_LOOP ( 'NONE', ( #134 ) ) ;
#60 = ADVANCED_BREP_SHAPE_REPRESENTATION ( '326672', ( #132, #68, #51 ), #9 ) ;
#61 = CARTESIAN_POINT ( 'NONE',  ( 1.326762908760390423E-13, -4.653657836759941941E-15, 38.00000000000000000 ) ) ;
#62 = FACE_OUTER_BOUND ( 'NONE', #146, .T. ) ;
#63 = VERTEX_POINT ( 'NONE', #189 ) ;
#64 = DIRECTION ( 'NONE',  ( 4.275831445896959482E-31, 1.000000000000000000, 1.224646799147353207E-16 ) ) ;
#65 = CONICAL_SURFACE ( 'NONE', #73, 1.500000000000000222, 0.4363323129985759441 ) ;
#66 = PERSON_AND_ORGANIZATION ( #11, #91 ) ;
#67 = ADVANCED_FACE ( 'NONE', ( #171, #49 ), #137, .T. ) ;
#68 = MANIFOLD_SOLID_BREP ( 'Corps-Déplacer/Copier1[2]', #112 ) ;
#69 = DATE_TIME_ROLE ( 'creation_date' ) ;
#70 = CC_DESIGN_DATE_AND_TIME_ASSIGNMENT ( #175, #136, ( #195 ) ) ;
#71 = APPLICATION_CONTEXT ( 'configuration controlled 3d designs of mechanical parts and assemblies' ) ;
#72 = COORDINATED_UNIVERSAL_TIME_OFFSET ( 1, 0, .AHEAD. ) ;
#73 = AXIS2_PLACEMENT_3D ( 'NONE', #126, #122, #104 ) ;
#74 = ADVANCED_FACE ( 'NONE', ( #173 ), #169, .F. ) ;
#75 = EDGE_LOOP ( 'NONE', ( #55 ) ) ;
#76 = ORIENTED_EDGE ( 'NONE', *, *, #86, .T. ) ;
#77 = DIRECTION ( 'NONE',  ( 3.491481338843133355E-15, -1.224646799147353207E-16, 1.000000000000000000 ) ) ;
#78 = CARTESIAN_POINT ( 'NONE',  ( 1.316288464743861212E-13, -4.616918432785521081E-15, 37.69999999999999574 ) ) ;
#79 = FACE_OUTER_BOUND ( 'NONE', #58, .T. ) ;
#80 = FACE_BOUND ( 'NONE', #59, .T. ) ;
#81 = APPROVAL_ROLE ( '' ) ;
#82 = PERSON_AND_ORGANIZATION_ROLE ( 'creator' ) ;
#83 = PERSON_AND_ORGANIZATION ( #11, #91 ) ;
#84 = PRODUCT_DEFINITION_SHAPE ( 'NONE', 'NONE',  #22 ) ;
#85 = ORIENTED_EDGE ( 'NONE', *, *, #39, .T. ) ;
#86 = EDGE_CURVE ( 'NONE', #46, #46, #199, .T. ) ;
#87 = APPROVAL_ROLE ( '' ) ;
#88 = APPROVAL_PERSON_ORGANIZATION ( #7, #109, #53 ) ;
#89 = CARTESIAN_POINT ( 'NONE',  ( -7.482705030319732081E-33, 2.624579619658269972E-34, -2.143131898507883782E-18 ) ) ;
#90 = DIRECTION ( 'NONE',  ( -4.275831445896958607E-31, -1.000000000000000000, -1.224646799147353207E-16 ) ) ;
#91 = ORGANIZATION ( 'UNSPECIFIED', 'UNSPECIFIED', '' ) ;
#92 = CIRCLE ( 'NONE', #33, 1.200000000000000178 ) ;
#93 = DIRECTION ( 'NONE',  ( -3.491481338843133355E-15, 1.224646799147353207E-16, -1.000000000000000000 ) ) ;
#94 = DIRECTION ( 'NONE',  ( 4.275831445896958607E-31, 1.000000000000000000, 1.224646799147353207E-16 ) ) ;
#95 = LOCAL_TIME ( 11, 21, 33.00000000000000000, #23 ) ;
#96 = PERSON_AND_ORGANIZATION ( #11, #91 ) ;
#97 = CC_DESIGN_PERSON_AND_ORGANIZATION_ASSIGNMENT ( #143, #8, ( #195 ) ) ;
#98 = DIRECTION ( 'NONE',  ( 1.000000000000000000, 0.0000000000000000000, 0.0000000000000000000 ) ) ;
#99 = AXIS2_PLACEMENT_3D ( 'NONE', #155, #20, #151 ) ;
#100 = DATE_AND_TIME ( #203, #200 ) ;
#101 = CARTESIAN_POINT ( 'NONE',  ( -1.496541006063946416E-32, 5.249159239316539944E-34, -4.286263797015767564E-18 ) ) ;
#102 = EDGE_LOOP ( 'NONE', ( #202 ) ) ;
#103 =( LENGTH_UNIT ( ) NAMED_UNIT ( * ) SI_UNIT ( .MILLI., .METRE. ) );
#104 = DIRECTION ( 'NONE',  ( 0.0000000000000000000, -1.000000000000000000, 0.0000000000000000000 ) ) ;
#105 = CARTESIAN_POINT ( 'NONE',  ( 1.096919613467953467E-14, -3.847476080168833854E-16, 3.141702638546556070 ) ) ;
#106 = CARTESIAN_POINT ( 'NONE',  ( 1.096919613467953309E-14, -9.083308869374977500E-16, 3.141702638546555626 ) ) ;
#107 = AXIS2_PLACEMENT_3D ( 'NONE', #153, #108, #94 ) ;
#108 = DIRECTION ( 'NONE',  ( -3.491481338843133355E-15, 1.224646799147353207E-16, -1.000000000000000000 ) ) ;
#109 = APPROVAL ( #115, 'UNSPECIFIED' ) ;
#110 = CALENDAR_DATE ( 2021, 22, 11 ) ;
#111 = APPROVAL_STATUS ( 'not_yet_approved' ) ;
#112 = CLOSED_SHELL ( 'NONE', ( #158, #147, #114 ) ) ;
#113 = CALENDAR_DATE ( 2021, 22, 11 ) ;
#114 = ADVANCED_FACE ( 'NONE', ( #170 ), #29, .T. ) ;
#115 = APPROVAL_STATUS ( 'not_yet_approved' ) ;
#116 = EDGE_LOOP ( 'NONE', ( #85 ) ) ;
#117 = PRODUCT_DEFINITION_FORMATION_WITH_SPECIFIED_SOURCE ( 'ANY', '', #133, .NOT_KNOWN. ) ;
#118 = APPROVAL ( #111, 'UNSPECIFIED' ) ;
#119 = ORIENTED_EDGE ( 'NONE', *, *, #57, .F. ) ;
#120 = DIRECTION ( 'NONE',  ( 3.491481338843133355E-15, -1.224646799147353207E-16, 1.000000000000000000 ) ) ;
#121 = APPROVAL_PERSON_ORGANIZATION ( #164, #56, #87 ) ;
#122 = DIRECTION ( 'NONE',  ( 3.491481338843133355E-15, -1.224646799147353207E-16, 1.000000000000000000 ) ) ;
#123 = APPROVAL_STATUS ( 'not_yet_approved' ) ;
#124 = VERTEX_POINT ( 'NONE', #187 ) ;
#125 = PLANE ( 'NONE',  #161 ) ;
#126 = CARTESIAN_POINT ( 'NONE',  ( 1.096919613467953467E-14, -3.847476080168833854E-16, 3.141702638546556070 ) ) ;
#127 = MECHANICAL_CONTEXT ( 'NONE', #71, 'mechanical' ) ;
#128 = CARTESIAN_POINT ( 'NONE',  ( 0.0000000000000000000, 0.0000000000000000000, 0.0000000000000000000 ) ) ;
#129 = CIRCLE ( 'NONE', #156, 1.500000000000000222 ) ;
#130 = APPLICATION_PROTOCOL_DEFINITION ( 'international standard', 'config_control_design', 1994, #71 ) ;
#131 = AXIS2_PLACEMENT_3D ( 'NONE', #105, #150, #152 ) ;
#132 = MANIFOLD_SOLID_BREP ( 'Corps-Déplacer/Copier1[1]', #28 ) ;
#133 = PRODUCT ( '326672', '326672', '', ( #127 ) ) ;
#134 = ORIENTED_EDGE ( 'NONE', *, *, #138, .T. ) ;
#135 = LOCAL_TIME ( 11, 21, 33.00000000000000000, #192 ) ;
#136 = DATE_TIME_ROLE ( 'classification_date' ) ;
#137 = CYLINDRICAL_SURFACE ( 'NONE', #168, 1.500000000000000000 ) ;
#138 = EDGE_CURVE ( 'NONE', #47, #47, #92, .T. ) ;
#139 = DIRECTION ( 'NONE',  ( 0.0000000000000000000, 1.000000000000000000, 0.0000000000000000000 ) ) ;
#140 = VERTEX_POINT ( 'NONE', #17 ) ;
#141 = COORDINATED_UNIVERSAL_TIME_OFFSET ( 1, 0, .AHEAD. ) ;
#142 = PRODUCT_RELATED_PRODUCT_CATEGORY ( 'detail', '', ( #133 ) ) ;
#143 = PERSON_AND_ORGANIZATION ( #11, #91 ) ;
#144 = APPLICATION_PROTOCOL_DEFINITION ( 'international standard', 'config_control_design', 1994, #176 ) ;
#145 = CC_DESIGN_APPROVAL ( #109, ( #22 ) ) ;
#146 = EDGE_LOOP ( 'NONE', ( #182 ) ) ;
#147 = ADVANCED_FACE ( 'NONE', ( #185, #18 ), #65, .T. ) ;
#148 = DESIGN_CONTEXT ( 'detailed design', #176, 'design' ) ;
#149 = EDGE_LOOP ( 'NONE', ( #201 ) ) ;
#150 = DIRECTION ( 'NONE',  ( -3.491481338843133355E-15, 1.224646799147353207E-16, -1.000000000000000000 ) ) ;
#151 = DIRECTION ( 'NONE',  ( 0.0000000000000000000, 1.000000000000000000, 0.0000000000000000000 ) ) ;
#152 = DIRECTION ( 'NONE',  ( 0.0000000000000000000, 1.000000000000000000, 0.0000000000000000000 ) ) ;
#153 = CARTESIAN_POINT ( 'NONE',  ( 1.326762908760390423E-13, 8.998558695971078593E-33, 38.00000000000000000 ) ) ;
#154 = CALENDAR_DATE ( 2021, 22, 11 ) ;
#155 = CARTESIAN_POINT ( 'NONE',  ( 1.316288464743861212E-13, -4.616918432785521081E-15, 37.69999999999999574 ) ) ;
#156 = AXIS2_PLACEMENT_3D ( 'NONE', #32, #5, #139 ) ;
#157 = CALENDAR_DATE ( 2021, 22, 11 ) ;
#158 = ADVANCED_FACE ( 'NONE', ( #62 ), #125, .F. ) ;
#159 = DIRECTION ( 'NONE',  ( 0.0000000000000000000, 0.0000000000000000000, 1.000000000000000000 ) ) ;
#160 = PERSON_AND_ORGANIZATION ( #11, #91 ) ;
#161 = AXIS2_PLACEMENT_3D ( 'NONE', #89, #120, #90 ) ;
#162 = SHAPE_DEFINITION_REPRESENTATION ( #84, #60 ) ;
#163 = DIRECTION ( 'NONE',  ( 4.275831445896958607E-31, 1.000000000000000000, 1.224646799147353207E-16 ) ) ;
#164 = PERSON_AND_ORGANIZATION ( #11, #91 ) ;
#165 = CC_DESIGN_PERSON_AND_ORGANIZATION_ASSIGNMENT ( #96, #40, ( #133 ) ) ;
#166 = DIRECTION ( 'NONE',  ( -3.491481338843133355E-15, 1.224646799147353207E-16, -1.000000000000000000 ) ) ;
#167 = EDGE_LOOP ( 'NONE', ( #76 ) ) ;
#168 = AXIS2_PLACEMENT_3D ( 'NONE', #6, #93, #64 ) ;
#169 = PLANE ( 'NONE',  #107 ) ;
#170 = FACE_OUTER_BOUND ( 'NONE', #75, .T. ) ;
#171 = FACE_OUTER_BOUND ( 'NONE', #13, .T. ) ;
#172 = CIRCLE ( 'NONE', #181, 1.500000000000000000 ) ;
#173 = FACE_OUTER_BOUND ( 'NONE', #149, .T. ) ;
#174 = DIRECTION ( 'NONE',  ( 3.491481338843133355E-15, -1.224646799147353207E-16, 1.000000000000000000 ) ) ;
#175 = DATE_AND_TIME ( #110, #135 ) ;
#176 = APPLICATION_CONTEXT ( 'configuration controlled 3d designs of mechanical parts and assemblies' ) ;
#177 =( NAMED_UNIT ( * ) SI_UNIT ( $, .STERADIAN. ) SOLID_ANGLE_UNIT ( ) );
#178 = APPROVAL_DATE_TIME ( #36, #118 ) ;
#179 = SECURITY_CLASSIFICATION_LEVEL ( 'unclassified' ) ;
#180 = CC_DESIGN_PERSON_AND_ORGANIZATION_ASSIGNMENT ( #21, #82, ( #117 ) ) ;
#181 = AXIS2_PLACEMENT_3D ( 'NONE', #78, #45, #2 ) ;
#182 = ORIENTED_EDGE ( 'NONE', *, *, #4, .T. ) ;
#183 = PLANE ( 'NONE',  #196 ) ;
#184 = LOCAL_TIME ( 11, 21, 33.00000000000000000, #141 ) ;
#185 = FACE_BOUND ( 'NONE', #15, .T. ) ;
#186 = APPROVAL_DATE_TIME ( #100, #56 ) ;
#187 = CARTESIAN_POINT ( 'NONE',  ( 1.316288464743861212E-13, 1.499999999999995559, 37.69999999999999574 ) ) ;
#188 = ADVANCED_FACE ( 'NONE', ( #80, #79 ), #190, .T. ) ;
#189 = CARTESIAN_POINT ( 'NONE',  ( 1.096919613467953467E-14, 1.499999999999999778, 3.141702638546556070 ) ) ;
#190 = CONICAL_SURFACE ( 'NONE', #99, 1.500000000000000000, 0.7853981633974453924 ) ;
#191 = DIRECTION ( 'NONE',  ( -4.275831445896958607E-31, -1.000000000000000000, -1.224646799147353207E-16 ) ) ;
#192 = COORDINATED_UNIVERSAL_TIME_OFFSET ( 1, 0, .AHEAD. ) ;
#193 = CC_DESIGN_PERSON_AND_ORGANIZATION_ASSIGNMENT ( #83, #198, ( #117 ) ) ;
#194 = DATE_AND_TIME ( #113, #184 ) ;
#195 = SECURITY_CLASSIFICATION ( '', '', #179 ) ;
#196 = AXIS2_PLACEMENT_3D ( 'NONE', #106, #77, #191 ) ;
#197 = COORDINATED_UNIVERSAL_TIME_OFFSET ( 1, 0, .AHEAD. ) ;
#198 = PERSON_AND_ORGANIZATION_ROLE ( 'design_supplier' ) ;
#199 = CIRCLE ( 'NONE', #131, 1.500000000000000222 ) ;
#200 = LOCAL_TIME ( 11, 21, 33.00000000000000000, #72 ) ;
#201 = ORIENTED_EDGE ( 'NONE', *, *, #138, .F. ) ;
#202 = ORIENTED_EDGE ( 'NONE', *, *, #39, .F. ) ;
#203 = CALENDAR_DATE ( 2021, 22, 11 ) ;
ENDSEC;
END-ISO-10303-21;
