ISO-10303-21;
HEADER;
FILE_DESCRIPTION (( 'STEP AP203' ),
    '1' );
FILE_NAME ('326671.step',
    '2021-11-22T10:21:32',
    ( '' ),
    ( '' ),
    'SwSTEP 2.0',
    'SolidWorks 2019',
    '' );
FILE_SCHEMA (( 'CONFIG_CONTROL_DESIGN' ));
ENDSEC;

DATA;
#1 = DIRECTION ( 'NONE',  ( 1.000000000000000000, 0.0000000000000000000, 0.0000000000000000000 ) ) ;
#2 = ORIENTED_EDGE ( 'NONE', *, *, #57, .T. ) ;
#3 = DIRECTION ( 'NONE',  ( -3.491481338843133355E-15, 1.224646799147353207E-16, -1.000000000000000000 ) ) ;
#4 = PRODUCT_DEFINITION_SHAPE ( 'NONE', 'NONE',  #160 ) ;
#5 = AXIS2_PLACEMENT_3D ( 'NONE', #41, #114, #175 ) ;
#6 = CARTESIAN_POINT ( 'NONE',  ( -3.434877644453181659E-32, 1.204792895767323054E-33, -9.837880575902757381E-18 ) ) ;
#7 = PERSON_AND_ORGANIZATION ( #12, #190 ) ;
#8 = APPLICATION_CONTEXT ( 'configuration controlled 3d designs of mechanical parts and assemblies' ) ;
#9 = PERSON_AND_ORGANIZATION ( #12, #190 ) ;
#10 = APPROVAL_STATUS ( 'not_yet_approved' ) ;
#11 = CALENDAR_DATE ( 2021, 22, 11 ) ;
#12 = PERSON ( 'UNSPECIFIED', 'UNSPECIFIED', 'UNSPECIFIED', ('UNSPECIFIED'), ('UNSPECIFIED'), ('UNSPECIFIED') ) ;
#13 = COORDINATED_UNIVERSAL_TIME_OFFSET ( 1, 0, .AHEAD. ) ;
#14 = DIRECTION ( 'NONE',  ( 0.0000000000000000000, 1.000000000000000000, 0.0000000000000000000 ) ) ;
#15 = CARTESIAN_POINT ( 'NONE',  ( 1.104407119361932716E-14, -3.873738715528348412E-16, 3.163147707751652327 ) ) ;
#16 = ORIENTED_EDGE ( 'NONE', *, *, #113, .T. ) ;
#17 = MECHANICAL_CONTEXT ( 'NONE', #201, 'mechanical' ) ;
#18 =( NAMED_UNIT ( * ) SI_UNIT ( $, .STERADIAN. ) SOLID_ANGLE_UNIT ( ) );
#19 = CIRCLE ( 'NONE', #62, 0.02499999999999977240 ) ;
#20 = DIRECTION ( 'NONE',  ( 4.275831445896959482E-31, 1.000000000000000000, 1.224646799147353207E-16 ) ) ;
#21 = PRODUCT_DEFINITION_FORMATION_WITH_SPECIFIED_SOURCE ( 'ANY', '', #161, .NOT_KNOWN. ) ;
#22 = DATE_AND_TIME ( #148, #58 ) ;
#23 = DATE_AND_TIME ( #11, #99 ) ;
#24 = CARTESIAN_POINT ( 'NONE',  ( 1.104407119361932716E-14, -3.873738715528348412E-16, 3.163147707751652327 ) ) ;
#25 = CIRCLE ( 'NONE', #169, 1.500000000000000000 ) ;
#26 = CC_DESIGN_PERSON_AND_ORGANIZATION_ASSIGNMENT ( #121, #84, ( #161 ) ) ;
#27 = CARTESIAN_POINT ( 'NONE',  ( 1.326762908760390423E-13, -4.653657836759941941E-15, 38.00000000000000000 ) ) ;
#28 = ORIENTED_EDGE ( 'NONE', *, *, #57, .F. ) ;
#29 =( GEOMETRIC_REPRESENTATION_CONTEXT ( 3 ) GLOBAL_UNCERTAINTY_ASSIGNED_CONTEXT ( ( #115 ) ) GLOBAL_UNIT_ASSIGNED_CONTEXT ( ( #158, #97, #18 ) ) REPRESENTATION_CONTEXT ( 'NONE', 'WORKASPACE' ) );
#30 = DIRECTION ( 'NONE',  ( 0.0000000000000000000, 0.0000000000000000000, 1.000000000000000000 ) ) ;
#31 = FACE_BOUND ( 'NONE', #154, .T. ) ;
#32 = CYLINDRICAL_SURFACE ( 'NONE', #145, 1.500000000000000000 ) ;
#33 = VERTEX_POINT ( 'NONE', #36 ) ;
#34 = EDGE_LOOP ( 'NONE', ( #75 ) ) ;
#35 = PRODUCT_RELATED_PRODUCT_CATEGORY ( 'detail', '', ( #161 ) ) ;
#36 = CARTESIAN_POINT ( 'NONE',  ( 1.104407119361932716E-14, 1.499999999999999556, 3.163147707751652327 ) ) ;
#37 = CLOSED_SHELL ( 'NONE', ( #173, #194, #129 ) ) ;
#38 = CC_DESIGN_APPROVAL ( #167, ( #87 ) ) ;
#39 = CIRCLE ( 'NONE', #155, 1.500000000000000000 ) ;
#40 = DIRECTION ( 'NONE',  ( 0.0000000000000000000, 1.000000000000000000, 0.0000000000000000000 ) ) ;
#41 = CARTESIAN_POINT ( 'NONE',  ( -1.717438822226590829E-32, 6.023964478836615271E-34, -4.918940287951378690E-18 ) ) ;
#42 = CIRCLE ( 'NONE', #144, 1.500000000000000000 ) ;
#43 = ORIENTED_EDGE ( 'NONE', *, *, #120, .F. ) ;
#44 = FACE_OUTER_BOUND ( 'NONE', #130, .T. ) ;
#45 = ORIENTED_EDGE ( 'NONE', *, *, #104, .T. ) ;
#46 = APPLICATION_PROTOCOL_DEFINITION ( 'international standard', 'config_control_design', 1994, #201 ) ;
#47 = VERTEX_POINT ( 'NONE', #159 ) ;
#48 = DIRECTION ( 'NONE',  ( 3.491481338843133355E-15, -1.224646799147353207E-16, 1.000000000000000000 ) ) ;
#49 = ADVANCED_FACE ( 'NONE', ( #116 ), #142, .F. ) ;
#50 = PERSON_AND_ORGANIZATION ( #12, #190 ) ;
#51 = APPROVAL_ROLE ( '' ) ;
#52 = DIRECTION ( 'NONE',  ( 3.491481338843133355E-15, -1.224646799147353207E-16, 1.000000000000000000 ) ) ;
#53 = PERSON_AND_ORGANIZATION ( #12, #190 ) ;
#54 = CC_DESIGN_DATE_AND_TIME_ASSIGNMENT ( #23, #176, ( #87 ) ) ;
#55 = FACE_OUTER_BOUND ( 'NONE', #94, .T. ) ;
#56 = CONICAL_SURFACE ( 'NONE', #123, 1.500000000000000000, 0.7853981633974453924 ) ;
#57 = EDGE_CURVE ( 'NONE', #60, #60, #19, .T. ) ;
#58 = LOCAL_TIME ( 11, 21, 32.00000000000000000, #85 ) ;
#59 = EDGE_LOOP ( 'NONE', ( #138 ) ) ;
#60 = VERTEX_POINT ( 'NONE', #76 ) ;
#61 = DIRECTION ( 'NONE',  ( -3.491481338843133355E-15, 1.224646799147353207E-16, -1.000000000000000000 ) ) ;
#62 = AXIS2_PLACEMENT_3D ( 'NONE', #6, #61, #191 ) ;
#63 = CARTESIAN_POINT ( 'NONE',  ( 1.104407119361932716E-14, -3.873738715528348412E-16, 3.163147707751652327 ) ) ;
#64 = ADVANCED_FACE ( 'NONE', ( #98 ), #140, .F. ) ;
#65 = CARTESIAN_POINT ( 'NONE',  ( 1.104407119361932716E-14, 1.499999999999999556, 3.163147707751652327 ) ) ;
#66 = CONICAL_SURFACE ( 'NONE', #127, 1.500000000000000000, 0.4363323129985759996 ) ;
#67 = CC_DESIGN_APPROVAL ( #192, ( #21 ) ) ;
#68 = SECURITY_CLASSIFICATION_LEVEL ( 'unclassified' ) ;
#69 = PERSON_AND_ORGANIZATION_ROLE ( 'creator' ) ;
#70 = APPROVAL_STATUS ( 'not_yet_approved' ) ;
#71 = APPROVAL_ROLE ( '' ) ;
#72 = APPLICATION_PROTOCOL_DEFINITION ( 'international standard', 'config_control_design', 1994, #8 ) ;
#73 = APPROVAL_ROLE ( '' ) ;
#74 = PLANE ( 'NONE',  #5 ) ;
#75 = ORIENTED_EDGE ( 'NONE', *, *, #89, .T. ) ;
#76 = CARTESIAN_POINT ( 'NONE',  ( -2.365919782978951696E-32, 0.02499999999999977240, -6.776263578034402713E-18 ) ) ;
#77 = DIRECTION ( 'NONE',  ( -3.491481338843133355E-15, 1.224646799147353207E-16, -1.000000000000000000 ) ) ;
#78 = VERTEX_POINT ( 'NONE', #65 ) ;
#79 = CARTESIAN_POINT ( 'NONE',  ( 0.0000000000000000000, 0.0000000000000000000, 0.0000000000000000000 ) ) ;
#80 = CARTESIAN_POINT ( 'NONE',  ( 1.326762908760390423E-13, 8.998558695971078593E-33, 38.00000000000000000 ) ) ;
#81 = MANIFOLD_SOLID_BREP ( 'Corps-Déplacer/Copier1[2]', #37 ) ;
#82 = MANIFOLD_SOLID_BREP ( 'Corps-Déplacer/Copier1[1]', #108 ) ;
#83 = PERSON_AND_ORGANIZATION_ROLE ( 'design_supplier' ) ;
#84 = PERSON_AND_ORGANIZATION_ROLE ( 'design_owner' ) ;
#85 = COORDINATED_UNIVERSAL_TIME_OFFSET ( 1, 0, .AHEAD. ) ;
#86 = AXIS2_PLACEMENT_3D ( 'NONE', #198, #52, #147 ) ;
#87 = SECURITY_CLASSIFICATION ( '', '', #68 ) ;
#88 = DIRECTION ( 'NONE',  ( -3.491481338843133355E-15, 1.224646799147353207E-16, -1.000000000000000000 ) ) ;
#89 = EDGE_CURVE ( 'NONE', #47, #47, #39, .T. ) ;
#90 = ORIENTED_EDGE ( 'NONE', *, *, #113, .F. ) ;
#91 = DIRECTION ( 'NONE',  ( -3.491481338843133355E-15, 1.224646799147353207E-16, -1.000000000000000000 ) ) ;
#92 = AXIS2_PLACEMENT_3D ( 'NONE', #27, #185, #137 ) ;
#93 = CARTESIAN_POINT ( 'NONE',  ( 1.104407119361932716E-14, 1.124819836996392658E-32, 3.163147707751652327 ) ) ;
#94 = EDGE_LOOP ( 'NONE', ( #188 ) ) ;
#95 = FACE_BOUND ( 'NONE', #157, .T. ) ;
#96 = AXIS2_PLACEMENT_3D ( 'NONE', #93, #170, #184 ) ;
#97 =( NAMED_UNIT ( * ) PLANE_ANGLE_UNIT ( ) SI_UNIT ( $, .RADIAN. ) );
#98 = FACE_OUTER_BOUND ( 'NONE', #111, .T. ) ;
#99 = LOCAL_TIME ( 11, 21, 32.00000000000000000, #197 ) ;
#100 = CALENDAR_DATE ( 2021, 22, 11 ) ;
#101 = LOCAL_TIME ( 11, 21, 32.00000000000000000, #163 ) ;
#102 = DATE_AND_TIME ( #164, #101 ) ;
#103 = PERSON_AND_ORGANIZATION_ROLE ( 'classification_officer' ) ;
#104 = EDGE_CURVE ( 'NONE', #112, #112, #162, .T. ) ;
#105 = PERSON_AND_ORGANIZATION ( #12, #190 ) ;
#106 = APPROVAL_DATE_TIME ( #136, #167 ) ;
#107 = DIRECTION ( 'NONE',  ( 0.0000000000000000000, 1.000000000000000000, 0.0000000000000000000 ) ) ;
#108 = CLOSED_SHELL ( 'NONE', ( #64, #177, #153, #49 ) ) ;
#109 = AXIS2_PLACEMENT_3D ( 'NONE', #79, #30, #1 ) ;
#110 = PLANE ( 'NONE',  #96 ) ;
#111 = EDGE_LOOP ( 'NONE', ( #16 ) ) ;
#112 = VERTEX_POINT ( 'NONE', #117 ) ;
#113 = EDGE_CURVE ( 'NONE', #33, #33, #25, .T. ) ;
#114 = DIRECTION ( 'NONE',  ( 3.491481338843133355E-15, -1.224646799147353207E-16, 1.000000000000000000 ) ) ;
#115 = UNCERTAINTY_MEASURE_WITH_UNIT (LENGTH_MEASURE( 1.000000000000000082E-05 ), #158, 'distance_accuracy_value', 'NONE');
#116 = FACE_OUTER_BOUND ( 'NONE', #203, .T. ) ;
#117 = CARTESIAN_POINT ( 'NONE',  ( 1.326762908760390423E-13, 1.199999999999995515, 38.00000000000000000 ) ) ;
#118 = LOCAL_TIME ( 11, 21, 32.00000000000000000, #13 ) ;
#119 = APPROVAL_DATE_TIME ( #102, #192 ) ;
#120 = EDGE_CURVE ( 'NONE', #78, #78, #42, .T. ) ;
#121 = PERSON_AND_ORGANIZATION ( #12, #190 ) ;
#122 = COORDINATED_UNIVERSAL_TIME_OFFSET ( 1, 0, .AHEAD. ) ;
#123 = AXIS2_PLACEMENT_3D ( 'NONE', #182, #88, #14 ) ;
#124 = APPROVAL_PERSON_ORGANIZATION ( #150, #192, #71 ) ;
#125 = DIRECTION ( 'NONE',  ( -3.491481338843133355E-15, 1.224646799147353207E-16, -1.000000000000000000 ) ) ;
#126 = CC_DESIGN_PERSON_AND_ORGANIZATION_ASSIGNMENT ( #9, #69, ( #21 ) ) ;
#127 = AXIS2_PLACEMENT_3D ( 'NONE', #63, #48, #141 ) ;
#128 = EDGE_LOOP ( 'NONE', ( #2 ) ) ;
#129 = ADVANCED_FACE ( 'NONE', ( #44 ), #110, .T. ) ;
#130 = EDGE_LOOP ( 'NONE', ( #43 ) ) ;
#131 = DESIGN_CONTEXT ( 'detailed design', #8, 'design' ) ;
#132 = FACE_OUTER_BOUND ( 'NONE', #59, .T. ) ;
#133 = ORIENTED_EDGE ( 'NONE', *, *, #104, .F. ) ;
#134 = LOCAL_TIME ( 11, 21, 32.00000000000000000, #122 ) ;
#135 = APPROVAL_DATE_TIME ( #199, #202 ) ;
#136 = DATE_AND_TIME ( #100, #134 ) ;
#137 = DIRECTION ( 'NONE',  ( 0.0000000000000000000, 1.000000000000000000, 0.0000000000000000000 ) ) ;
#138 = ORIENTED_EDGE ( 'NONE', *, *, #120, .T. ) ;
#139 = FACE_OUTER_BOUND ( 'NONE', #189, .T. ) ;
#140 = PLANE ( 'NONE',  #86 ) ;
#141 = DIRECTION ( 'NONE',  ( 0.0000000000000000000, -1.000000000000000000, 0.0000000000000000000 ) ) ;
#142 = PLANE ( 'NONE',  #149 ) ;
#143 = DIRECTION ( 'NONE',  ( 4.275831445896958607E-31, 1.000000000000000000, 1.224646799147353207E-16 ) ) ;
#144 = AXIS2_PLACEMENT_3D ( 'NONE', #15, #125, #40 ) ;
#145 = AXIS2_PLACEMENT_3D ( 'NONE', #171, #3, #20 ) ;
#146 = CC_DESIGN_PERSON_AND_ORGANIZATION_ASSIGNMENT ( #53, #83, ( #21 ) ) ;
#147 = DIRECTION ( 'NONE',  ( -4.275831445896958607E-31, -1.000000000000000000, -1.224646799147353207E-16 ) ) ;
#148 = CALENDAR_DATE ( 2021, 22, 11 ) ;
#149 = AXIS2_PLACEMENT_3D ( 'NONE', #80, #77, #143 ) ;
#150 = PERSON_AND_ORGANIZATION ( #12, #190 ) ;
#151 = CC_DESIGN_PERSON_AND_ORGANIZATION_ASSIGNMENT ( #50, #103, ( #87 ) ) ;
#152 = FACE_OUTER_BOUND ( 'NONE', #128, .T. ) ;
#153 = ADVANCED_FACE ( 'NONE', ( #95, #55 ), #56, .T. ) ;
#154 = EDGE_LOOP ( 'NONE', ( #28 ) ) ;
#155 = AXIS2_PLACEMENT_3D ( 'NONE', #178, #91, #187 ) ;
#156 = APPROVAL_PERSON_ORGANIZATION ( #7, #202, #51 ) ;
#157 = EDGE_LOOP ( 'NONE', ( #45 ) ) ;
#158 =( LENGTH_UNIT ( ) NAMED_UNIT ( * ) SI_UNIT ( .MILLI., .METRE. ) );
#159 = CARTESIAN_POINT ( 'NONE',  ( 1.316288464743861212E-13, 1.499999999999995559, 37.69999999999999574 ) ) ;
#160 = PRODUCT_DEFINITION ( 'UNKNOWN', '', #21, #131 ) ;
#161 = PRODUCT ( '326671', '326671', '', ( #17 ) ) ;
#162 = CIRCLE ( 'NONE', #92, 1.200000000000000178 ) ;
#163 = COORDINATED_UNIVERSAL_TIME_OFFSET ( 1, 0, .AHEAD. ) ;
#164 = CALENDAR_DATE ( 2021, 22, 11 ) ;
#165 = PERSON_AND_ORGANIZATION_ROLE ( 'creator' ) ;
#166 = PERSON_AND_ORGANIZATION ( #12, #190 ) ;
#167 = APPROVAL ( #179, 'UNSPECIFIED' ) ;
#168 = DATE_TIME_ROLE ( 'creation_date' ) ;
#169 = AXIS2_PLACEMENT_3D ( 'NONE', #24, #200, #107 ) ;
#170 = DIRECTION ( 'NONE',  ( 3.491481338843133355E-15, -1.224646799147353207E-16, 1.000000000000000000 ) ) ;
#171 = CARTESIAN_POINT ( 'NONE',  ( 0.0000000000000000000, 0.0000000000000000000, 0.0000000000000000000 ) ) ;
#172 = APPROVAL_PERSON_ORGANIZATION ( #166, #167, #73 ) ;
#173 = ADVANCED_FACE ( 'NONE', ( #152 ), #74, .F. ) ;
#174 = ADVANCED_BREP_SHAPE_REPRESENTATION ( '326671', ( #82, #81, #109 ), #29 ) ;
#175 = DIRECTION ( 'NONE',  ( -4.275831445896958607E-31, -1.000000000000000000, -1.224646799147353207E-16 ) ) ;
#176 = DATE_TIME_ROLE ( 'classification_date' ) ;
#177 = ADVANCED_FACE ( 'NONE', ( #193, #139 ), #32, .T. ) ;
#178 = CARTESIAN_POINT ( 'NONE',  ( 1.316288464743861212E-13, -4.616918432785521081E-15, 37.69999999999999574 ) ) ;
#179 = APPROVAL_STATUS ( 'not_yet_approved' ) ;
#180 = CALENDAR_DATE ( 2021, 22, 11 ) ;
#181 = CC_DESIGN_SECURITY_CLASSIFICATION ( #87, ( #21 ) ) ;
#182 = CARTESIAN_POINT ( 'NONE',  ( 1.316288464743861212E-13, -4.616918432785521081E-15, 37.69999999999999574 ) ) ;
#183 = CC_DESIGN_PERSON_AND_ORGANIZATION_ASSIGNMENT ( #105, #165, ( #160 ) ) ;
#184 = DIRECTION ( 'NONE',  ( -4.275831445896958607E-31, -1.000000000000000000, -1.224646799147353207E-16 ) ) ;
#185 = DIRECTION ( 'NONE',  ( -3.491481338843133355E-15, 1.224646799147353207E-16, -1.000000000000000000 ) ) ;
#186 = CC_DESIGN_APPROVAL ( #202, ( #160 ) ) ;
#187 = DIRECTION ( 'NONE',  ( 0.0000000000000000000, 1.000000000000000000, 0.0000000000000000000 ) ) ;
#188 = ORIENTED_EDGE ( 'NONE', *, *, #89, .F. ) ;
#189 = EDGE_LOOP ( 'NONE', ( #90 ) ) ;
#190 = ORGANIZATION ( 'UNSPECIFIED', 'UNSPECIFIED', '' ) ;
#191 = DIRECTION ( 'NONE',  ( 4.275831445896958607E-31, 1.000000000000000000, 1.224646799147352961E-16 ) ) ;
#192 = APPROVAL ( #10, 'UNSPECIFIED' ) ;
#193 = FACE_OUTER_BOUND ( 'NONE', #34, .T. ) ;
#194 = ADVANCED_FACE ( 'NONE', ( #31, #132 ), #66, .T. ) ;
#195 = SHAPE_DEFINITION_REPRESENTATION ( #4, #174 ) ;
#196 = CC_DESIGN_DATE_AND_TIME_ASSIGNMENT ( #22, #168, ( #160 ) ) ;
#197 = COORDINATED_UNIVERSAL_TIME_OFFSET ( 1, 0, .AHEAD. ) ;
#198 = CARTESIAN_POINT ( 'NONE',  ( 1.104407119361932716E-14, 1.124819836996392658E-32, 3.163147707751652327 ) ) ;
#199 = DATE_AND_TIME ( #180, #118 ) ;
#200 = DIRECTION ( 'NONE',  ( -3.491481338843133355E-15, 1.224646799147353207E-16, -1.000000000000000000 ) ) ;
#201 = APPLICATION_CONTEXT ( 'configuration controlled 3d designs of mechanical parts and assemblies' ) ;
#202 = APPROVAL ( #70, 'UNSPECIFIED' ) ;
#203 = EDGE_LOOP ( 'NONE', ( #133 ) ) ;
ENDSEC;
END-ISO-10303-21;
