ISO-10303-21;
HEADER;
FILE_DESCRIPTION (( 'STEP AP203' ),
    '1' );
FILE_NAME ('326670.step',
    '2021-11-22T10:21:32',
    ( '' ),
    ( '' ),
    'SwSTEP 2.0',
    'SolidWorks 2019',
    '' );
FILE_SCHEMA (( 'CONFIG_CONTROL_DESIGN' ));
ENDSEC;

DATA;
#1 = DATE_AND_TIME ( #72, #149 ) ;
#2 = LOCAL_TIME ( 11, 21, 32.00000000000000000, #34 ) ;
#3 = PERSON_AND_ORGANIZATION_ROLE ( 'creator' ) ;
#4 = CARTESIAN_POINT ( 'NONE',  ( 0.0000000000000000000, 0.0000000000000000000, 0.0000000000000000000 ) ) ;
#5 = ORIENTED_EDGE ( 'NONE', *, *, #182, .F. ) ;
#6 = CARTESIAN_POINT ( 'NONE',  ( 1.316288464743861212E-13, -4.616918432785521081E-15, 37.69999999999999574 ) ) ;
#7 = PLANE ( 'NONE',  #99 ) ;
#8 = DIRECTION ( 'NONE',  ( 3.491481338843133355E-15, -1.224646799147353207E-16, 1.000000000000000000 ) ) ;
#9 = CALENDAR_DATE ( 2021, 22, 11 ) ;
#10 = PERSON_AND_ORGANIZATION ( #165, #64 ) ;
#11 = VERTEX_POINT ( 'NONE', #118 ) ;
#12 = CIRCLE ( 'NONE', #129, 1.499999999999999556 ) ;
#13 = PRODUCT ( '326670', '326670', '', ( #37 ) ) ;
#14 = CARTESIAN_POINT ( 'NONE',  ( -2.023913692933242642E-32, 7.098933619454619981E-34, -5.796719204587946619E-18 ) ) ;
#15 = CARTESIAN_POINT ( 'NONE',  ( 1.366969174795941440E-14, 1.174693759830023048E-31, 3.915155322722912778 ) ) ;
#16 = DIRECTION ( 'NONE',  ( 0.0000000000000000000, 1.000000000000000000, 0.0000000000000000000 ) ) ;
#17 = DATE_TIME_ROLE ( 'classification_date' ) ;
#18 = COORDINATED_UNIVERSAL_TIME_OFFSET ( 1, 0, .AHEAD. ) ;
#19 = PRODUCT_DEFINITION_FORMATION_WITH_SPECIFIED_SOURCE ( 'ANY', '', #13, .NOT_KNOWN. ) ;
#20 = CC_DESIGN_PERSON_AND_ORGANIZATION_ASSIGNMENT ( #178, #117, ( #137 ) ) ;
#21 = SHAPE_DEFINITION_REPRESENTATION ( #156, #131 ) ;
#22 = DATE_AND_TIME ( #153, #93 ) ;
#23 = AXIS2_PLACEMENT_3D ( 'NONE', #133, #8, #65 ) ;
#24 = CC_DESIGN_APPROVAL ( #154, ( #19 ) ) ;
#25 = PERSON_AND_ORGANIZATION ( #165, #64 ) ;
#26 = PRODUCT_RELATED_PRODUCT_CATEGORY ( 'detail', '', ( #13 ) ) ;
#27 = APPROVAL_PERSON_ORGANIZATION ( #52, #197, #101 ) ;
#28 = DIRECTION ( 'NONE',  ( 0.0000000000000000000, 1.000000000000000000, 0.0000000000000000000 ) ) ;
#29 = EDGE_LOOP ( 'NONE', ( #135 ) ) ;
#30 = DIRECTION ( 'NONE',  ( 3.491481338843133355E-15, -1.224646799147353207E-16, 1.000000000000000000 ) ) ;
#31 = FACE_OUTER_BOUND ( 'NONE', #60, .T. ) ;
#32 = CLOSED_SHELL ( 'NONE', ( #159, #119, #51 ) ) ;
#33 = CC_DESIGN_DATE_AND_TIME_ASSIGNMENT ( #168, #17, ( #137 ) ) ;
#34 = COORDINATED_UNIVERSAL_TIME_OFFSET ( 1, 0, .AHEAD. ) ;
#35 = CARTESIAN_POINT ( 'NONE',  ( 1.326762908760390423E-13, -4.653657836759941941E-15, 38.00000000000000000 ) ) ;
#36 =( NAMED_UNIT ( * ) SI_UNIT ( $, .STERADIAN. ) SOLID_ANGLE_UNIT ( ) );
#37 = MECHANICAL_CONTEXT ( 'NONE', #186, 'mechanical' ) ;
#38 = DATE_AND_TIME ( #9, #184 ) ;
#39 = DIRECTION ( 'NONE',  ( 1.000000000000000000, 0.0000000000000000000, 0.0000000000000000000 ) ) ;
#40 = VERTEX_POINT ( 'NONE', #84 ) ;
#41 = AXIS2_PLACEMENT_3D ( 'NONE', #166, #121, #39 ) ;
#42 = ORIENTED_EDGE ( 'NONE', *, *, #172, .T. ) ;
#43 = EDGE_LOOP ( 'NONE', ( #158 ) ) ;
#44 = CONICAL_SURFACE ( 'NONE', #155, 1.500000000000000000, 0.7853981633974453924 ) ;
#45 = ADVANCED_FACE ( 'NONE', ( #116, #201 ), #44, .T. ) ;
#46 = ORIENTED_EDGE ( 'NONE', *, *, #182, .T. ) ;
#47 = CARTESIAN_POINT ( 'NONE',  ( 1.366969174795941440E-14, -4.794682434137337408E-16, 3.915155322722912778 ) ) ;
#48 = DIRECTION ( 'NONE',  ( -3.491481338843133355E-15, 1.224646799147353207E-16, -1.000000000000000000 ) ) ;
#49 = SECURITY_CLASSIFICATION_LEVEL ( 'unclassified' ) ;
#50 = DIRECTION ( 'NONE',  ( -3.491481338843133355E-15, 1.224646799147353207E-16, -1.000000000000000000 ) ) ;
#51 = ADVANCED_FACE ( 'NONE', ( #94 ), #53, .T. ) ;
#52 = PERSON_AND_ORGANIZATION ( #165, #64 ) ;
#53 = PLANE ( 'NONE',  #61 ) ;
#54 = CONICAL_SURFACE ( 'NONE', #163, 1.499999999999999556, 0.3490658503988596228 ) ;
#55 = APPROVAL ( #104, 'UNSPECIFIED' ) ;
#56 = PERSON_AND_ORGANIZATION ( #165, #64 ) ;
#57 = APPROVAL_ROLE ( '' ) ;
#58 = EDGE_LOOP ( 'NONE', ( #195 ) ) ;
#59 = CC_DESIGN_PERSON_AND_ORGANIZATION_ASSIGNMENT ( #143, #3, ( #19 ) ) ;
#60 = EDGE_LOOP ( 'NONE', ( #157 ) ) ;
#61 = AXIS2_PLACEMENT_3D ( 'NONE', #15, #62, #114 ) ;
#62 = DIRECTION ( 'NONE',  ( 3.491481338843133355E-15, -1.224646799147353207E-16, 1.000000000000000000 ) ) ;
#63 = DIRECTION ( 'NONE',  ( -3.491481338843133355E-15, 1.224646799147353207E-16, -1.000000000000000000 ) ) ;
#64 = ORGANIZATION ( 'UNSPECIFIED', 'UNSPECIFIED', '' ) ;
#65 = DIRECTION ( 'NONE',  ( -4.275831445896958607E-31, -1.000000000000000000, -1.224646799147353207E-16 ) ) ;
#66 = PRODUCT_DEFINITION ( 'UNKNOWN', '', #19, #144 ) ;
#67 = DIRECTION ( 'NONE',  ( -4.275831445896958607E-31, -1.000000000000000000, -1.224646799147353207E-16 ) ) ;
#68 = CARTESIAN_POINT ( 'NONE',  ( 1.366969174795941440E-14, 1.499999999999999112, 3.915155322722912778 ) ) ;
#69 = CIRCLE ( 'NONE', #89, 0.07499999999999999722 ) ;
#70 =( LENGTH_UNIT ( ) NAMED_UNIT ( * ) SI_UNIT ( .MILLI., .METRE. ) );
#71 = MANIFOLD_SOLID_BREP ( 'Corps-Déplacer/Copier1[2]', #32 ) ;
#72 = CALENDAR_DATE ( 2021, 22, 11 ) ;
#73 = DATE_TIME_ROLE ( 'creation_date' ) ;
#74 = APPROVAL_PERSON_ORGANIZATION ( #25, #154, #57 ) ;
#75 = AXIS2_PLACEMENT_3D ( 'NONE', #76, #176, #113 ) ;
#76 = CARTESIAN_POINT ( 'NONE',  ( 1.366969174795941440E-14, -4.794682434137337408E-16, 3.915155322722912778 ) ) ;
#77 = FACE_OUTER_BOUND ( 'NONE', #43, .T. ) ;
#78 = CARTESIAN_POINT ( 'NONE',  ( -1.011956846466621321E-32, 3.549466809727309990E-34, -2.898359602293973310E-18 ) ) ;
#79 = CIRCLE ( 'NONE', #136, 1.500000000000000000 ) ;
#80 = CLOSED_SHELL ( 'NONE', ( #83, #194, #45, #96 ) ) ;
#81 = DIRECTION ( 'NONE',  ( 4.275831445896958607E-31, 1.000000000000000000, 1.224646799147353207E-16 ) ) ;
#82 = CYLINDRICAL_SURFACE ( 'NONE', #127, 1.499999999999999778 ) ;
#83 = ADVANCED_FACE ( 'NONE', ( #160 ), #196, .F. ) ;
#84 = CARTESIAN_POINT ( 'NONE',  ( 1.366969174795941440E-14, 1.499999999999999112, 3.915155322722912778 ) ) ;
#85 = DIRECTION ( 'NONE',  ( 4.275831445896959482E-31, 1.000000000000000000, 1.224646799147353207E-16 ) ) ;
#86 = CALENDAR_DATE ( 2021, 22, 11 ) ;
#87 = VERTEX_POINT ( 'NONE', #68 ) ;
#88 = APPROVAL_DATE_TIME ( #22, #55 ) ;
#89 = AXIS2_PLACEMENT_3D ( 'NONE', #14, #63, #161 ) ;
#90 = DATE_AND_TIME ( #108, #102 ) ;
#91 = EDGE_LOOP ( 'NONE', ( #191 ) ) ;
#92 = UNCERTAINTY_MEASURE_WITH_UNIT (LENGTH_MEASURE( 1.000000000000000082E-05 ), #70, 'distance_accuracy_value', 'NONE');
#93 = LOCAL_TIME ( 11, 21, 32.00000000000000000, #18 ) ;
#94 = FACE_OUTER_BOUND ( 'NONE', #107, .T. ) ;
#95 = DIRECTION ( 'NONE',  ( -3.491481338843133355E-15, 1.224646799147353207E-16, -1.000000000000000000 ) ) ;
#96 = ADVANCED_FACE ( 'NONE', ( #77 ), #198, .F. ) ;
#97 = DIRECTION ( 'NONE',  ( -3.491481338843133355E-15, 1.224646799147353207E-16, -1.000000000000000000 ) ) ;
#98 =( GEOMETRIC_REPRESENTATION_CONTEXT ( 3 ) GLOBAL_UNCERTAINTY_ASSIGNED_CONTEXT ( ( #92 ) ) GLOBAL_UNIT_ASSIGNED_CONTEXT ( ( #70, #185, #36 ) ) REPRESENTATION_CONTEXT ( 'NONE', 'WORKASPACE' ) );
#99 = AXIS2_PLACEMENT_3D ( 'NONE', #78, #30, #67 ) ;
#100 = CARTESIAN_POINT ( 'NONE',  ( 1.316288464743861212E-13, -4.616918432785521081E-15, 37.69999999999999574 ) ) ;
#101 = APPROVAL_ROLE ( '' ) ;
#102 = LOCAL_TIME ( 11, 21, 32.00000000000000000, #142 ) ;
#103 = COORDINATED_UNIVERSAL_TIME_OFFSET ( 1, 0, .AHEAD. ) ;
#104 = APPROVAL_STATUS ( 'not_yet_approved' ) ;
#105 = APPROVAL_STATUS ( 'not_yet_approved' ) ;
#106 = EDGE_CURVE ( 'NONE', #11, #11, #69, .T. ) ;
#107 = EDGE_LOOP ( 'NONE', ( #130 ) ) ;
#108 = CALENDAR_DATE ( 2021, 22, 11 ) ;
#109 = ORIENTED_EDGE ( 'NONE', *, *, #106, .F. ) ;
#110 = CIRCLE ( 'NONE', #75, 1.499999999999999556 ) ;
#111 = CC_DESIGN_APPROVAL ( #197, ( #137 ) ) ;
#112 = CC_DESIGN_PERSON_AND_ORGANIZATION_ASSIGNMENT ( #199, #148, ( #19 ) ) ;
#113 = DIRECTION ( 'NONE',  ( 0.0000000000000000000, 1.000000000000000000, 0.0000000000000000000 ) ) ;
#114 = DIRECTION ( 'NONE',  ( -4.275831445896958607E-31, -1.000000000000000000, -1.224646799147353207E-16 ) ) ;
#115 = DIRECTION ( 'NONE',  ( -3.491481338843133355E-15, 1.224646799147353207E-16, -1.000000000000000000 ) ) ;
#116 = FACE_BOUND ( 'NONE', #29, .T. ) ;
#117 = PERSON_AND_ORGANIZATION_ROLE ( 'classification_officer' ) ;
#118 = CARTESIAN_POINT ( 'NONE',  ( 1.182959891489476121E-32, 0.07499999999999999722, 3.388131789017201356E-18 ) ) ;
#119 = ADVANCED_FACE ( 'NONE', ( #134, #147 ), #54, .T. ) ;
#120 = APPLICATION_PROTOCOL_DEFINITION ( 'international standard', 'config_control_design', 1994, #186 ) ;
#121 = DIRECTION ( 'NONE',  ( 0.0000000000000000000, 0.0000000000000000000, 1.000000000000000000 ) ) ;
#122 = APPLICATION_PROTOCOL_DEFINITION ( 'international standard', 'config_control_design', 1994, #124 ) ;
#123 = EDGE_CURVE ( 'NONE', #139, #139, #193, .T. ) ;
#124 = APPLICATION_CONTEXT ( 'configuration controlled 3d designs of mechanical parts and assemblies' ) ;
#125 = COORDINATED_UNIVERSAL_TIME_OFFSET ( 1, 0, .AHEAD. ) ;
#126 = PERSON_AND_ORGANIZATION_ROLE ( 'creator' ) ;
#127 = AXIS2_PLACEMENT_3D ( 'NONE', #4, #152, #85 ) ;
#128 = CC_DESIGN_APPROVAL ( #55, ( #66 ) ) ;
#129 = AXIS2_PLACEMENT_3D ( 'NONE', #200, #50, #175 ) ;
#130 = ORIENTED_EDGE ( 'NONE', *, *, #146, .F. ) ;
#131 = ADVANCED_BREP_SHAPE_REPRESENTATION ( '326670', ( #141, #71, #41 ), #98 ) ;
#132 = DIRECTION ( 'NONE',  ( 0.0000000000000000000, 1.000000000000000000, 0.0000000000000000000 ) ) ;
#133 = CARTESIAN_POINT ( 'NONE',  ( 1.366969174795941440E-14, 1.174693759830023048E-31, 3.915155322722912778 ) ) ;
#134 = FACE_BOUND ( 'NONE', #145, .T. ) ;
#135 = ORIENTED_EDGE ( 'NONE', *, *, #123, .T. ) ;
#136 = AXIS2_PLACEMENT_3D ( 'NONE', #6, #115, #16 ) ;
#137 = SECURITY_CLASSIFICATION ( '', '', #49 ) ;
#138 = CARTESIAN_POINT ( 'NONE',  ( 1.316288464743861212E-13, 1.499999999999995559, 37.69999999999999574 ) ) ;
#139 = VERTEX_POINT ( 'NONE', #202 ) ;
#140 = APPROVAL_DATE_TIME ( #90, #154 ) ;
#141 = MANIFOLD_SOLID_BREP ( 'Corps-Déplacer/Copier1[1]', #80 ) ;
#142 = COORDINATED_UNIVERSAL_TIME_OFFSET ( 1, 0, .AHEAD. ) ;
#143 = PERSON_AND_ORGANIZATION ( #165, #64 ) ;
#144 = DESIGN_CONTEXT ( 'detailed design', #124, 'design' ) ;
#145 = EDGE_LOOP ( 'NONE', ( #109 ) ) ;
#146 = EDGE_CURVE ( 'NONE', #40, #40, #110, .T. ) ;
#147 = FACE_OUTER_BOUND ( 'NONE', #58, .T. ) ;
#148 = PERSON_AND_ORGANIZATION_ROLE ( 'design_supplier' ) ;
#149 = LOCAL_TIME ( 11, 21, 32.00000000000000000, #125 ) ;
#150 = FACE_OUTER_BOUND ( 'NONE', #91, .T. ) ;
#151 = CC_DESIGN_PERSON_AND_ORGANIZATION_ASSIGNMENT ( #10, #167, ( #13 ) ) ;
#152 = DIRECTION ( 'NONE',  ( -3.491481338843133355E-15, 1.224646799147353207E-16, -1.000000000000000000 ) ) ;
#153 = CALENDAR_DATE ( 2021, 22, 11 ) ;
#154 = APPROVAL ( #105, 'UNSPECIFIED' ) ;
#155 = AXIS2_PLACEMENT_3D ( 'NONE', #100, #97, #28 ) ;
#156 = PRODUCT_DEFINITION_SHAPE ( 'NONE', 'NONE',  #66 ) ;
#157 = ORIENTED_EDGE ( 'NONE', *, *, #172, .F. ) ;
#158 = ORIENTED_EDGE ( 'NONE', *, *, #123, .F. ) ;
#159 = ADVANCED_FACE ( 'NONE', ( #150 ), #7, .F. ) ;
#160 = FACE_OUTER_BOUND ( 'NONE', #174, .T. ) ;
#161 = DIRECTION ( 'NONE',  ( 4.275831445896958607E-31, 1.000000000000000000, 1.224646799147352961E-16 ) ) ;
#162 = DIRECTION ( 'NONE',  ( 3.491481338843133355E-15, -1.224646799147353207E-16, 1.000000000000000000 ) ) ;
#163 = AXIS2_PLACEMENT_3D ( 'NONE', #47, #162, #181 ) ;
#164 = CARTESIAN_POINT ( 'NONE',  ( 1.326762908760390423E-13, 8.998558695971078593E-33, 38.00000000000000000 ) ) ;
#165 = PERSON ( 'UNSPECIFIED', 'UNSPECIFIED', 'UNSPECIFIED', ('UNSPECIFIED'), ('UNSPECIFIED'), ('UNSPECIFIED') ) ;
#166 = CARTESIAN_POINT ( 'NONE',  ( 0.0000000000000000000, 0.0000000000000000000, 0.0000000000000000000 ) ) ;
#167 = PERSON_AND_ORGANIZATION_ROLE ( 'design_owner' ) ;
#168 = DATE_AND_TIME ( #86, #2 ) ;
#169 = APPROVAL_ROLE ( '' ) ;
#170 = AXIS2_PLACEMENT_3D ( 'NONE', #35, #48, #132 ) ;
#171 = EDGE_LOOP ( 'NONE', ( #5 ) ) ;
#172 = EDGE_CURVE ( 'NONE', #87, #87, #12, .T. ) ;
#173 = EDGE_LOOP ( 'NONE', ( #46 ) ) ;
#174 = EDGE_LOOP ( 'NONE', ( #42 ) ) ;
#175 = DIRECTION ( 'NONE',  ( 0.0000000000000000000, 1.000000000000000000, 0.0000000000000000000 ) ) ;
#176 = DIRECTION ( 'NONE',  ( -3.491481338843133355E-15, 1.224646799147353207E-16, -1.000000000000000000 ) ) ;
#177 = CC_DESIGN_DATE_AND_TIME_ASSIGNMENT ( #1, #73, ( #66 ) ) ;
#178 = PERSON_AND_ORGANIZATION ( #165, #64 ) ;
#179 = FACE_OUTER_BOUND ( 'NONE', #173, .T. ) ;
#180 = AXIS2_PLACEMENT_3D ( 'NONE', #164, #95, #81 ) ;
#181 = DIRECTION ( 'NONE',  ( 0.0000000000000000000, -1.000000000000000000, 0.0000000000000000000 ) ) ;
#182 = EDGE_CURVE ( 'NONE', #188, #188, #79, .T. ) ;
#183 = APPROVAL_DATE_TIME ( #38, #197 ) ;
#184 = LOCAL_TIME ( 11, 21, 32.00000000000000000, #103 ) ;
#185 =( NAMED_UNIT ( * ) PLANE_ANGLE_UNIT ( ) SI_UNIT ( $, .RADIAN. ) );
#186 = APPLICATION_CONTEXT ( 'configuration controlled 3d designs of mechanical parts and assemblies' ) ;
#187 = APPROVAL_STATUS ( 'not_yet_approved' ) ;
#188 = VERTEX_POINT ( 'NONE', #138 ) ;
#189 = PERSON_AND_ORGANIZATION ( #165, #64 ) ;
#190 = CC_DESIGN_PERSON_AND_ORGANIZATION_ASSIGNMENT ( #189, #126, ( #66 ) ) ;
#191 = ORIENTED_EDGE ( 'NONE', *, *, #106, .T. ) ;
#192 = APPROVAL_PERSON_ORGANIZATION ( #56, #55, #169 ) ;
#193 = CIRCLE ( 'NONE', #170, 1.200000000000000178 ) ;
#194 = ADVANCED_FACE ( 'NONE', ( #179, #31 ), #82, .T. ) ;
#195 = ORIENTED_EDGE ( 'NONE', *, *, #146, .T. ) ;
#196 = PLANE ( 'NONE',  #23 ) ;
#197 = APPROVAL ( #187, 'UNSPECIFIED' ) ;
#198 = PLANE ( 'NONE',  #180 ) ;
#199 = PERSON_AND_ORGANIZATION ( #165, #64 ) ;
#200 = CARTESIAN_POINT ( 'NONE',  ( 1.366969174795941440E-14, -4.794682434137337408E-16, 3.915155322722912778 ) ) ;
#201 = FACE_OUTER_BOUND ( 'NONE', #171, .T. ) ;
#202 = CARTESIAN_POINT ( 'NONE',  ( 1.326762908760390423E-13, 1.199999999999995515, 38.00000000000000000 ) ) ;
#203 = CC_DESIGN_SECURITY_CLASSIFICATION ( #137, ( #19 ) ) ;
ENDSEC;
END-ISO-10303-21;
