ISO-10303-21;
HEADER;
FILE_DESCRIPTION (( 'STEP AP203' ),
    '1' );
FILE_NAME ('326669.step',
    '2021-11-22T10:21:31',
    ( '' ),
    ( '' ),
    'SwSTEP 2.0',
    'SolidWorks 2019',
    '' );
FILE_SCHEMA (( 'CONFIG_CONTROL_DESIGN' ));
ENDSEC;

DATA;
#1 = EDGE_LOOP ( 'NONE', ( #74 ) ) ;
#2 = MANIFOLD_SOLID_BREP ( 'Corps-Déplacer/Copier1[2]', #168 ) ;
#3 = MANIFOLD_SOLID_BREP ( 'Corps-Déplacer/Copier1[1]', #51 ) ;
#4 = AXIS2_PLACEMENT_3D ( 'NONE', #17, #138, #57 ) ;
#5 = FACE_BOUND ( 'NONE', #93, .T. ) ;
#6 = PERSON_AND_ORGANIZATION ( #23, #160 ) ;
#7 = CARTESIAN_POINT ( 'NONE',  ( 1.390951090143238575E-14, -4.878799669823956792E-16, 3.983842258209278953 ) ) ;
#8 = DIRECTION ( 'NONE',  ( -3.491481338843133355E-15, 1.224646799147353207E-16, -1.000000000000000000 ) ) ;
#9 = DATE_AND_TIME ( #146, #39 ) ;
#10 = CC_DESIGN_DATE_AND_TIME_ASSIGNMENT ( #109, #170, ( #11 ) ) ;
#11 = SECURITY_CLASSIFICATION ( '', '', #92 ) ;
#12 = PLANE ( 'NONE',  #150 ) ;
#13 = AXIS2_PLACEMENT_3D ( 'NONE', #7, #117, #134 ) ;
#14 = APPROVAL_STATUS ( 'not_yet_approved' ) ;
#15 = PERSON_AND_ORGANIZATION ( #23, #160 ) ;
#16 = ADVANCED_BREP_SHAPE_REPRESENTATION ( '326669', ( #3, #2, #135 ), #142 ) ;
#17 = CARTESIAN_POINT ( 'NONE',  ( 1.390951090143238575E-14, -4.878799669823956792E-16, 3.983842258209278953 ) ) ;
#18 = PERSON_AND_ORGANIZATION_ROLE ( 'design_supplier' ) ;
#19 = PRODUCT ( '326669', '326669', '', ( #38 ) ) ;
#20 = FACE_OUTER_BOUND ( 'NONE', #30, .T. ) ;
#21 = CIRCLE ( 'NONE', #121, 0.05000000000000007910 ) ;
#22 = DIRECTION ( 'NONE',  ( -3.491481338843133355E-15, 1.224646799147353207E-16, -1.000000000000000000 ) ) ;
#23 = PERSON ( 'UNSPECIFIED', 'UNSPECIFIED', 'UNSPECIFIED', ('UNSPECIFIED'), ('UNSPECIFIED'), ('UNSPECIFIED') ) ;
#24 = DIRECTION ( 'NONE',  ( 0.0000000000000000000, 1.000000000000000000, 0.0000000000000000000 ) ) ;
#25 = CARTESIAN_POINT ( 'NONE',  ( 1.316288464743861212E-13, -4.616918432785521081E-15, 37.69999999999999574 ) ) ;
#26 = AXIS2_PLACEMENT_3D ( 'NONE', #63, #68, #46 ) ;
#27 = CC_DESIGN_PERSON_AND_ORGANIZATION_ASSIGNMENT ( #87, #86, ( #19 ) ) ;
#28 = ORIENTED_EDGE ( 'NONE', *, *, #64, .T. ) ;
#29 = APPROVAL_STATUS ( 'not_yet_approved' ) ;
#30 = EDGE_LOOP ( 'NONE', ( #28 ) ) ;
#31 = CARTESIAN_POINT ( 'NONE',  ( -4.774779157295033288E-33, 1.674767081399994395E-34, -1.367551103359786924E-18 ) ) ;
#32 = AXIS2_PLACEMENT_3D ( 'NONE', #167, #91, #153 ) ;
#33 = DATE_TIME_ROLE ( 'creation_date' ) ;
#34 = CARTESIAN_POINT ( 'NONE',  ( 1.182959891489475848E-32, 0.05000000000000007910, 3.388131789017201356E-18 ) ) ;
#35 =( NAMED_UNIT ( * ) SI_UNIT ( $, .STERADIAN. ) SOLID_ANGLE_UNIT ( ) );
#36 =( NAMED_UNIT ( * ) PLANE_ANGLE_UNIT ( ) SI_UNIT ( $, .RADIAN. ) );
#37 = APPROVAL_PERSON_ORGANIZATION ( #73, #180, #94 ) ;
#38 = MECHANICAL_CONTEXT ( 'NONE', #166, 'mechanical' ) ;
#39 = LOCAL_TIME ( 11, 21, 31.00000000000000000, #82 ) ;
#40 = ADVANCED_FACE ( 'NONE', ( #20 ), #172, .F. ) ;
#41 = EDGE_LOOP ( 'NONE', ( #139 ) ) ;
#42 = AXIS2_PLACEMENT_3D ( 'NONE', #131, #78, #162 ) ;
#43 = CARTESIAN_POINT ( 'NONE',  ( -9.549558314590066577E-33, 3.349534162799988791E-34, -2.735102206719573847E-18 ) ) ;
#44 = PERSON_AND_ORGANIZATION_ROLE ( 'classification_officer' ) ;
#45 = EDGE_LOOP ( 'NONE', ( #72 ) ) ;
#46 = DIRECTION ( 'NONE',  ( -4.275831445896958607E-31, -1.000000000000000000, -1.224646799147353207E-16 ) ) ;
#47 = CARTESIAN_POINT ( 'NONE',  ( 1.326762908760390423E-13, 8.998558695971078593E-33, 38.00000000000000000 ) ) ;
#48 = DIRECTION ( 'NONE',  ( 0.0000000000000000000, 1.000000000000000000, 0.0000000000000000000 ) ) ;
#49 = CYLINDRICAL_SURFACE ( 'NONE', #122, 1.500000000000000000 ) ;
#50 = CC_DESIGN_PERSON_AND_ORGANIZATION_ASSIGNMENT ( #132, #190, ( #88 ) ) ;
#51 = CLOSED_SHELL ( 'NONE', ( #53, #184, #196, #154 ) ) ;
#52 = PERSON_AND_ORGANIZATION ( #23, #160 ) ;
#53 = ADVANCED_FACE ( 'NONE', ( #55 ), #124, .F. ) ;
#54 = SHAPE_DEFINITION_REPRESENTATION ( #103, #16 ) ;
#55 = FACE_OUTER_BOUND ( 'NONE', #41, .T. ) ;
#56 = EDGE_CURVE ( 'NONE', #143, #143, #61, .T. ) ;
#57 = DIRECTION ( 'NONE',  ( 0.0000000000000000000, 1.000000000000000000, 0.0000000000000000000 ) ) ;
#58 = CC_DESIGN_APPROVAL ( #192, ( #176 ) ) ;
#59 = EDGE_LOOP ( 'NONE', ( #203 ) ) ;
#60 = APPROVAL_STATUS ( 'not_yet_approved' ) ;
#61 = CIRCLE ( 'NONE', #4, 1.500000000000000000 ) ;
#62 = CC_DESIGN_APPROVAL ( #113, ( #88 ) ) ;
#63 = CARTESIAN_POINT ( 'NONE',  ( 1.390951090143238890E-14, 1.124819836996392658E-32, 3.983842258209279841 ) ) ;
#64 = EDGE_CURVE ( 'NONE', #163, #163, #21, .T. ) ;
#65 = FACE_BOUND ( 'NONE', #126, .T. ) ;
#66 = FACE_OUTER_BOUND ( 'NONE', #1, .T. ) ;
#67 = APPROVAL_PERSON_ORGANIZATION ( #6, #192, #140 ) ;
#68 = DIRECTION ( 'NONE',  ( 3.491481338843133355E-15, -1.224646799147353207E-16, 1.000000000000000000 ) ) ;
#69 = CONICAL_SURFACE ( 'NONE', #13, 1.500000000000000000, 0.3490658503988596784 ) ;
#70 = APPLICATION_PROTOCOL_DEFINITION ( 'international standard', 'config_control_design', 1994, #151 ) ;
#71 = PRODUCT_RELATED_PRODUCT_CATEGORY ( 'detail', '', ( #19 ) ) ;
#72 = ORIENTED_EDGE ( 'NONE', *, *, #173, .F. ) ;
#73 = PERSON_AND_ORGANIZATION ( #23, #160 ) ;
#74 = ORIENTED_EDGE ( 'NONE', *, *, #102, .T. ) ;
#75 = DATE_AND_TIME ( #97, #95 ) ;
#76 = CARTESIAN_POINT ( 'NONE',  ( 1.316288464743861212E-13, 1.499999999999995559, 37.69999999999999574 ) ) ;
#77 = CIRCLE ( 'NONE', #197, 1.500000000000000000 ) ;
#78 = DIRECTION ( 'NONE',  ( -3.491481338843133355E-15, 1.224646799147353207E-16, -1.000000000000000000 ) ) ;
#79 = CC_DESIGN_APPROVAL ( #180, ( #11 ) ) ;
#80 = FACE_OUTER_BOUND ( 'NONE', #45, .T. ) ;
#81 = CARTESIAN_POINT ( 'NONE',  ( 0.0000000000000000000, 0.0000000000000000000, 0.0000000000000000000 ) ) ;
#82 = COORDINATED_UNIVERSAL_TIME_OFFSET ( 1, 0, .AHEAD. ) ;
#83 = DIRECTION ( 'NONE',  ( -3.491481338843133355E-15, 1.224646799147353207E-16, -1.000000000000000000 ) ) ;
#84 = LOCAL_TIME ( 11, 21, 31.00000000000000000, #201 ) ;
#85 = CARTESIAN_POINT ( 'NONE',  ( 0.0000000000000000000, 0.0000000000000000000, 0.0000000000000000000 ) ) ;
#86 = PERSON_AND_ORGANIZATION_ROLE ( 'design_owner' ) ;
#87 = PERSON_AND_ORGANIZATION ( #23, #160 ) ;
#88 = PRODUCT_DEFINITION ( 'UNKNOWN', '', #176, #107 ) ;
#89 = AXIS2_PLACEMENT_3D ( 'NONE', #31, #96, #157 ) ;
#90 = CALENDAR_DATE ( 2021, 22, 11 ) ;
#91 = DIRECTION ( 'NONE',  ( 3.491481338843133355E-15, -1.224646799147353207E-16, 1.000000000000000000 ) ) ;
#92 = SECURITY_CLASSIFICATION_LEVEL ( 'unclassified' ) ;
#93 = EDGE_LOOP ( 'NONE', ( #202 ) ) ;
#94 = APPROVAL_ROLE ( '' ) ;
#95 = LOCAL_TIME ( 11, 21, 31.00000000000000000, #110 ) ;
#96 = DIRECTION ( 'NONE',  ( 3.491481338843133355E-15, -1.224646799147353207E-16, 1.000000000000000000 ) ) ;
#97 = CALENDAR_DATE ( 2021, 22, 11 ) ;
#98 = DIRECTION ( 'NONE',  ( 0.0000000000000000000, 1.000000000000000000, 0.0000000000000000000 ) ) ;
#99 = CIRCLE ( 'NONE', #177, 1.500000000000000000 ) ;
#100 = DIRECTION ( 'NONE',  ( 4.275831445896958607E-31, 1.000000000000000000, 1.224646799147353207E-16 ) ) ;
#101 = VERTEX_POINT ( 'NONE', #76 ) ;
#102 = EDGE_CURVE ( 'NONE', #147, #147, #77, .T. ) ;
#103 = PRODUCT_DEFINITION_SHAPE ( 'NONE', 'NONE',  #88 ) ;
#104 = APPROVAL_ROLE ( '' ) ;
#105 = ORIENTED_EDGE ( 'NONE', *, *, #102, .F. ) ;
#106 = CIRCLE ( 'NONE', #42, 1.200000000000000178 ) ;
#107 = DESIGN_CONTEXT ( 'detailed design', #151, 'design' ) ;
#108 = DIRECTION ( 'NONE',  ( -3.491481338843133355E-15, 1.224646799147353207E-16, -1.000000000000000000 ) ) ;
#109 = DATE_AND_TIME ( #186, #178 ) ;
#110 = COORDINATED_UNIVERSAL_TIME_OFFSET ( 1, 0, .AHEAD. ) ;
#111 = EDGE_LOOP ( 'NONE', ( #137 ) ) ;
#112 = CONICAL_SURFACE ( 'NONE', #171, 1.500000000000000000, 0.7853981633974453924 ) ;
#113 = APPROVAL ( #14, 'UNSPECIFIED' ) ;
#114 = UNCERTAINTY_MEASURE_WITH_UNIT (LENGTH_MEASURE( 1.000000000000000082E-05 ), #145, 'distance_accuracy_value', 'NONE');
#115 = APPLICATION_PROTOCOL_DEFINITION ( 'international standard', 'config_control_design', 1994, #166 ) ;
#116 = COORDINATED_UNIVERSAL_TIME_OFFSET ( 1, 0, .AHEAD. ) ;
#117 = DIRECTION ( 'NONE',  ( 3.491481338843133355E-15, -1.224646799147353207E-16, 1.000000000000000000 ) ) ;
#118 = DIRECTION ( 'NONE',  ( -3.491481338843133355E-15, 1.224646799147353207E-16, -1.000000000000000000 ) ) ;
#119 = DIRECTION ( 'NONE',  ( 4.275831445896959482E-31, 1.000000000000000000, 1.224646799147353207E-16 ) ) ;
#120 = VERTEX_POINT ( 'NONE', #175 ) ;
#121 = AXIS2_PLACEMENT_3D ( 'NONE', #43, #108, #194 ) ;
#122 = AXIS2_PLACEMENT_3D ( 'NONE', #81, #191, #119 ) ;
#123 = CC_DESIGN_DATE_AND_TIME_ASSIGNMENT ( #75, #33, ( #88 ) ) ;
#124 = PLANE ( 'NONE',  #32 ) ;
#125 = CC_DESIGN_PERSON_AND_ORGANIZATION_ASSIGNMENT ( #15, #44, ( #11 ) ) ;
#126 = EDGE_LOOP ( 'NONE', ( #187 ) ) ;
#127 = EDGE_CURVE ( 'NONE', #120, #120, #106, .T. ) ;
#128 = FACE_OUTER_BOUND ( 'NONE', #59, .T. ) ;
#129 = CALENDAR_DATE ( 2021, 22, 11 ) ;
#130 = CARTESIAN_POINT ( 'NONE',  ( 1.390951090143238575E-14, 1.499999999999999556, 3.983842258209278953 ) ) ;
#131 = CARTESIAN_POINT ( 'NONE',  ( 1.326762908760390423E-13, -4.653657836759941941E-15, 38.00000000000000000 ) ) ;
#132 = PERSON_AND_ORGANIZATION ( #23, #160 ) ;
#133 = FACE_OUTER_BOUND ( 'NONE', #155, .T. ) ;
#134 = DIRECTION ( 'NONE',  ( 0.0000000000000000000, -1.000000000000000000, 0.0000000000000000000 ) ) ;
#135 = AXIS2_PLACEMENT_3D ( 'NONE', #85, #164, #179 ) ;
#136 = COORDINATED_UNIVERSAL_TIME_OFFSET ( 1, 0, .AHEAD. ) ;
#137 = ORIENTED_EDGE ( 'NONE', *, *, #127, .F. ) ;
#138 = DIRECTION ( 'NONE',  ( -3.491481338843133355E-15, 1.224646799147353207E-16, -1.000000000000000000 ) ) ;
#139 = ORIENTED_EDGE ( 'NONE', *, *, #56, .T. ) ;
#140 = APPROVAL_ROLE ( '' ) ;
#141 = CARTESIAN_POINT ( 'NONE',  ( 1.316288464743861212E-13, -4.616918432785521081E-15, 37.69999999999999574 ) ) ;
#142 =( GEOMETRIC_REPRESENTATION_CONTEXT ( 3 ) GLOBAL_UNCERTAINTY_ASSIGNED_CONTEXT ( ( #114 ) ) GLOBAL_UNIT_ASSIGNED_CONTEXT ( ( #145, #36, #35 ) ) REPRESENTATION_CONTEXT ( 'NONE', 'WORKASPACE' ) );
#143 = VERTEX_POINT ( 'NONE', #130 ) ;
#144 = APPROVAL_DATE_TIME ( #9, #113 ) ;
#145 =( LENGTH_UNIT ( ) NAMED_UNIT ( * ) SI_UNIT ( .MILLI., .METRE. ) );
#146 = CALENDAR_DATE ( 2021, 22, 11 ) ;
#147 = VERTEX_POINT ( 'NONE', #193 ) ;
#148 = ADVANCED_FACE ( 'NONE', ( #65, #66 ), #69, .T. ) ;
#149 = DATE_AND_TIME ( #129, #182 ) ;
#150 = AXIS2_PLACEMENT_3D ( 'NONE', #47, #83, #100 ) ;
#151 = APPLICATION_CONTEXT ( 'configuration controlled 3d designs of mechanical parts and assemblies' ) ;
#152 = PERSON_AND_ORGANIZATION ( #23, #160 ) ;
#153 = DIRECTION ( 'NONE',  ( -4.275831445896958607E-31, -1.000000000000000000, -1.224646799147353207E-16 ) ) ;
#154 = ADVANCED_FACE ( 'NONE', ( #174 ), #12, .F. ) ;
#155 = EDGE_LOOP ( 'NONE', ( #105 ) ) ;
#156 = ORIENTED_EDGE ( 'NONE', *, *, #56, .F. ) ;
#157 = DIRECTION ( 'NONE',  ( -4.275831445896958607E-31, -1.000000000000000000, -1.224646799147353207E-16 ) ) ;
#158 = CARTESIAN_POINT ( 'NONE',  ( 1.390951090143238575E-14, -4.878799669823956792E-16, 3.983842258209278953 ) ) ;
#159 = PLANE ( 'NONE',  #26 ) ;
#160 = ORGANIZATION ( 'UNSPECIFIED', 'UNSPECIFIED', '' ) ;
#161 = CC_DESIGN_PERSON_AND_ORGANIZATION_ASSIGNMENT ( #189, #18, ( #176 ) ) ;
#162 = DIRECTION ( 'NONE',  ( 0.0000000000000000000, 1.000000000000000000, 0.0000000000000000000 ) ) ;
#163 = VERTEX_POINT ( 'NONE', #34 ) ;
#164 = DIRECTION ( 'NONE',  ( 0.0000000000000000000, 0.0000000000000000000, 1.000000000000000000 ) ) ;
#165 = ADVANCED_FACE ( 'NONE', ( #133 ), #159, .T. ) ;
#166 = APPLICATION_CONTEXT ( 'configuration controlled 3d designs of mechanical parts and assemblies' ) ;
#167 = CARTESIAN_POINT ( 'NONE',  ( 1.390951090143238890E-14, 1.124819836996392658E-32, 3.983842258209279841 ) ) ;
#168 = CLOSED_SHELL ( 'NONE', ( #40, #148, #165 ) ) ;
#169 = APPROVAL_PERSON_ORGANIZATION ( #152, #113, #104 ) ;
#170 = DATE_TIME_ROLE ( 'classification_date' ) ;
#171 = AXIS2_PLACEMENT_3D ( 'NONE', #141, #118, #98 ) ;
#172 = PLANE ( 'NONE',  #89 ) ;
#173 = EDGE_CURVE ( 'NONE', #101, #101, #99, .T. ) ;
#174 = FACE_OUTER_BOUND ( 'NONE', #111, .T. ) ;
#175 = CARTESIAN_POINT ( 'NONE',  ( 1.326762908760390423E-13, 1.199999999999995515, 38.00000000000000000 ) ) ;
#176 = PRODUCT_DEFINITION_FORMATION_WITH_SPECIFIED_SOURCE ( 'ANY', '', #19, .NOT_KNOWN. ) ;
#177 = AXIS2_PLACEMENT_3D ( 'NONE', #25, #22, #24 ) ;
#178 = LOCAL_TIME ( 11, 21, 31.00000000000000000, #136 ) ;
#179 = DIRECTION ( 'NONE',  ( 1.000000000000000000, 0.0000000000000000000, 0.0000000000000000000 ) ) ;
#180 = APPROVAL ( #29, 'UNSPECIFIED' ) ;
#181 = PERSON_AND_ORGANIZATION_ROLE ( 'creator' ) ;
#182 = LOCAL_TIME ( 11, 21, 31.00000000000000000, #116 ) ;
#183 = APPROVAL_DATE_TIME ( #185, #180 ) ;
#184 = ADVANCED_FACE ( 'NONE', ( #128, #195 ), #49, .T. ) ;
#185 = DATE_AND_TIME ( #90, #84 ) ;
#186 = CALENDAR_DATE ( 2021, 22, 11 ) ;
#187 = ORIENTED_EDGE ( 'NONE', *, *, #64, .F. ) ;
#188 = EDGE_LOOP ( 'NONE', ( #156 ) ) ;
#189 = PERSON_AND_ORGANIZATION ( #23, #160 ) ;
#190 = PERSON_AND_ORGANIZATION_ROLE ( 'creator' ) ;
#191 = DIRECTION ( 'NONE',  ( -3.491481338843133355E-15, 1.224646799147353207E-16, -1.000000000000000000 ) ) ;
#192 = APPROVAL ( #60, 'UNSPECIFIED' ) ;
#193 = CARTESIAN_POINT ( 'NONE',  ( 1.390951090143238575E-14, 1.499999999999999556, 3.983842258209278953 ) ) ;
#194 = DIRECTION ( 'NONE',  ( 4.275831445896958607E-31, 1.000000000000000000, 1.224646799147353207E-16 ) ) ;
#195 = FACE_OUTER_BOUND ( 'NONE', #188, .T. ) ;
#196 = ADVANCED_FACE ( 'NONE', ( #5, #80 ), #112, .T. ) ;
#197 = AXIS2_PLACEMENT_3D ( 'NONE', #158, #8, #48 ) ;
#198 = CC_DESIGN_SECURITY_CLASSIFICATION ( #11, ( #176 ) ) ;
#199 = CC_DESIGN_PERSON_AND_ORGANIZATION_ASSIGNMENT ( #52, #181, ( #176 ) ) ;
#200 = APPROVAL_DATE_TIME ( #149, #192 ) ;
#201 = COORDINATED_UNIVERSAL_TIME_OFFSET ( 1, 0, .AHEAD. ) ;
#202 = ORIENTED_EDGE ( 'NONE', *, *, #127, .T. ) ;
#203 = ORIENTED_EDGE ( 'NONE', *, *, #173, .T. ) ;
ENDSEC;
END-ISO-10303-21;
