ISO-10303-21;
HEADER;
FILE_DESCRIPTION (( 'STEP AP203' ),
    '1' );
FILE_NAME ('326668.step',
    '2021-11-22T10:21:31',
    ( '' ),
    ( '' ),
    'SwSTEP 2.0',
    'SolidWorks 2019',
    '' );
FILE_SCHEMA (( 'CONFIG_CONTROL_DESIGN' ));
ENDSEC;

DATA;
#1 = FACE_OUTER_BOUND ( 'NONE', #84, .T. ) ;
#2 = EDGE_LOOP ( 'NONE', ( #7 ) ) ;
#3 = CARTESIAN_POINT ( 'NONE',  ( 1.400543856282157492E-14, 1.499999999999999556, 4.011317032403825422 ) ) ;
#4 = FACE_BOUND ( 'NONE', #125, .T. ) ;
#5 = DIRECTION ( 'NONE',  ( -3.491481338843133355E-15, 1.224646799147353207E-16, -1.000000000000000000 ) ) ;
#6 = SECURITY_CLASSIFICATION_LEVEL ( 'unclassified' ) ;
#7 = ORIENTED_EDGE ( 'NONE', *, *, #102, .T. ) ;
#8 = CC_DESIGN_DATE_AND_TIME_ASSIGNMENT ( #181, #10, ( #63 ) ) ;
#9 = VERTEX_POINT ( 'NONE', #135 ) ;
#10 = DATE_TIME_ROLE ( 'creation_date' ) ;
#11 = AXIS2_PLACEMENT_3D ( 'NONE', #168, #14, #141 ) ;
#12 = CALENDAR_DATE ( 2021, 22, 11 ) ;
#13 =( GEOMETRIC_REPRESENTATION_CONTEXT ( 3 ) GLOBAL_UNCERTAINTY_ASSIGNED_CONTEXT ( ( #48 ) ) GLOBAL_UNIT_ASSIGNED_CONTEXT ( ( #184, #43, #27 ) ) REPRESENTATION_CONTEXT ( 'NONE', 'WORKASPACE' ) );
#14 = DIRECTION ( 'NONE',  ( 3.491481338843133355E-15, -1.224646799147353207E-16, 1.000000000000000000 ) ) ;
#15 = ORIENTED_EDGE ( 'NONE', *, *, #44, .F. ) ;
#16 = ADVANCED_BREP_SHAPE_REPRESENTATION ( '326668', ( #139, #74, #36 ), #13 ) ;
#17 = DIRECTION ( 'NONE',  ( 0.0000000000000000000, 0.0000000000000000000, 1.000000000000000000 ) ) ;
#18 = CC_DESIGN_SECURITY_CLASSIFICATION ( #62, ( #132 ) ) ;
#19 = CYLINDRICAL_SURFACE ( 'NONE', #78, 1.500000000000000000 ) ;
#20 = EDGE_CURVE ( 'NONE', #147, #147, #152, .T. ) ;
#21 = AXIS2_PLACEMENT_3D ( 'NONE', #101, #24, #58 ) ;
#22 = PERSON_AND_ORGANIZATION ( #96, #116 ) ;
#23 = FACE_BOUND ( 'NONE', #163, .T. ) ;
#24 = DIRECTION ( 'NONE',  ( -3.491481338843133355E-15, 1.224646799147353207E-16, -1.000000000000000000 ) ) ;
#25 = APPROVAL_STATUS ( 'not_yet_approved' ) ;
#26 = PRODUCT_DEFINITION_SHAPE ( 'NONE', 'NONE',  #63 ) ;
#27 =( NAMED_UNIT ( * ) SI_UNIT ( $, .STERADIAN. ) SOLID_ANGLE_UNIT ( ) );
#28 = APPROVAL_PERSON_ORGANIZATION ( #49, #68, #172 ) ;
#29 = ORIENTED_EDGE ( 'NONE', *, *, #44, .T. ) ;
#30 = EDGE_LOOP ( 'NONE', ( #107 ) ) ;
#31 = EDGE_LOOP ( 'NONE', ( #111 ) ) ;
#32 = LOCAL_TIME ( 11, 21, 31.00000000000000000, #57 ) ;
#33 = DIRECTION ( 'NONE',  ( 0.0000000000000000000, -1.000000000000000000, 0.0000000000000000000 ) ) ;
#34 = CLOSED_SHELL ( 'NONE', ( #182, #191, #133 ) ) ;
#35 = DIRECTION ( 'NONE',  ( 0.0000000000000000000, 1.000000000000000000, 0.0000000000000000000 ) ) ;
#36 = AXIS2_PLACEMENT_3D ( 'NONE', #95, #17, #157 ) ;
#37 = AXIS2_PLACEMENT_3D ( 'NONE', #110, #173, #33 ) ;
#38 = DATE_TIME_ROLE ( 'classification_date' ) ;
#39 = VERTEX_POINT ( 'NONE', #117 ) ;
#40 = COORDINATED_UNIVERSAL_TIME_OFFSET ( 1, 0, .AHEAD. ) ;
#41 = CALENDAR_DATE ( 2021, 22, 11 ) ;
#42 = APPROVAL_DATE_TIME ( #137, #195 ) ;
#43 =( NAMED_UNIT ( * ) PLANE_ANGLE_UNIT ( ) SI_UNIT ( $, .RADIAN. ) );
#44 = EDGE_CURVE ( 'NONE', #50, #50, #112, .T. ) ;
#45 = AXIS2_PLACEMENT_3D ( 'NONE', #138, #151, #115 ) ;
#46 = DIRECTION ( 'NONE',  ( 0.0000000000000000000, 1.000000000000000000, 0.0000000000000000000 ) ) ;
#47 = PLANE ( 'NONE',  #11 ) ;
#48 = UNCERTAINTY_MEASURE_WITH_UNIT (LENGTH_MEASURE( 1.000000000000000082E-05 ), #184, 'distance_accuracy_value', 'NONE');
#49 = PERSON_AND_ORGANIZATION ( #96, #116 ) ;
#50 = VERTEX_POINT ( 'NONE', #175 ) ;
#51 = MECHANICAL_CONTEXT ( 'NONE', #120, 'mechanical' ) ;
#52 = CC_DESIGN_PERSON_AND_ORGANIZATION_ASSIGNMENT ( #80, #109, ( #180 ) ) ;
#53 = DIRECTION ( 'NONE',  ( -4.275831445896958607E-31, -1.000000000000000000, -1.224646799147353207E-16 ) ) ;
#54 = APPROVAL_PERSON_ORGANIZATION ( #70, #150, #55 ) ;
#55 = APPROVAL_ROLE ( '' ) ;
#56 = FACE_OUTER_BOUND ( 'NONE', #30, .T. ) ;
#57 = COORDINATED_UNIVERSAL_TIME_OFFSET ( 1, 0, .AHEAD. ) ;
#58 = DIRECTION ( 'NONE',  ( 0.0000000000000000000, 1.000000000000000000, 0.0000000000000000000 ) ) ;
#59 = CARTESIAN_POINT ( 'NONE',  ( 1.400543856282157492E-14, 1.499999999999999556, 4.011317032403825422 ) ) ;
#60 = PERSON_AND_ORGANIZATION ( #96, #116 ) ;
#61 = CC_DESIGN_PERSON_AND_ORGANIZATION_ASSIGNMENT ( #66, #197, ( #63 ) ) ;
#62 = SECURITY_CLASSIFICATION ( '', '', #6 ) ;
#63 = PRODUCT_DEFINITION ( 'UNKNOWN', '', #132, #104 ) ;
#64 = PLANE ( 'NONE',  #143 ) ;
#65 = ORIENTED_EDGE ( 'NONE', *, *, #174, .F. ) ;
#66 = PERSON_AND_ORGANIZATION ( #96, #116 ) ;
#67 = AXIS2_PLACEMENT_3D ( 'NONE', #161, #5, #129 ) ;
#68 = APPROVAL ( #170, 'UNSPECIFIED' ) ;
#69 = FACE_OUTER_BOUND ( 'NONE', #187, .T. ) ;
#70 = PERSON_AND_ORGANIZATION ( #96, #116 ) ;
#71 = DIRECTION ( 'NONE',  ( 3.491481338843133355E-15, -1.224646799147353207E-16, 1.000000000000000000 ) ) ;
#72 = CIRCLE ( 'NONE', #92, 1.200000000000000178 ) ;
#73 = PERSON_AND_ORGANIZATION_ROLE ( 'classification_officer' ) ;
#74 = MANIFOLD_SOLID_BREP ( 'Corps-Déplacer/Copier1[2]', #34 ) ;
#75 = APPROVAL_ROLE ( '' ) ;
#76 = CC_DESIGN_DATE_AND_TIME_ASSIGNMENT ( #134, #38, ( #62 ) ) ;
#77 = FACE_OUTER_BOUND ( 'NONE', #31, .T. ) ;
#78 = AXIS2_PLACEMENT_3D ( 'NONE', #171, #130, #148 ) ;
#79 = EDGE_LOOP ( 'NONE', ( #140 ) ) ;
#80 = PERSON_AND_ORGANIZATION ( #96, #116 ) ;
#81 = FACE_OUTER_BOUND ( 'NONE', #79, .T. ) ;
#82 = ORIENTED_EDGE ( 'NONE', *, *, #20, .T. ) ;
#83 = LOCAL_TIME ( 11, 21, 31.00000000000000000, #119 ) ;
#84 = EDGE_LOOP ( 'NONE', ( #131 ) ) ;
#85 = FACE_OUTER_BOUND ( 'NONE', #2, .T. ) ;
#86 = CARTESIAN_POINT ( 'NONE',  ( 1.326762908760390423E-13, 8.998558695971078593E-33, 38.00000000000000000 ) ) ;
#87 = SHAPE_DEFINITION_REPRESENTATION ( #26, #16 ) ;
#88 = AXIS2_PLACEMENT_3D ( 'NONE', #192, #194, #35 ) ;
#89 = CALENDAR_DATE ( 2021, 22, 11 ) ;
#90 = APPROVAL_STATUS ( 'not_yet_approved' ) ;
#91 = ADVANCED_FACE ( 'NONE', ( #85 ), #162, .F. ) ;
#92 = AXIS2_PLACEMENT_3D ( 'NONE', #126, #154, #46 ) ;
#93 = APPLICATION_CONTEXT ( 'configuration controlled 3d designs of mechanical parts and assemblies' ) ;
#94 = DIRECTION ( 'NONE',  ( 3.491481338843133355E-15, -1.224646799147353207E-16, 1.000000000000000000 ) ) ;
#95 = CARTESIAN_POINT ( 'NONE',  ( 0.0000000000000000000, 0.0000000000000000000, 0.0000000000000000000 ) ) ;
#96 = PERSON ( 'UNSPECIFIED', 'UNSPECIFIED', 'UNSPECIFIED', ('UNSPECIFIED'), ('UNSPECIFIED'), ('UNSPECIFIED') ) ;
#97 = DIRECTION ( 'NONE',  ( -3.491481338843133355E-15, 1.224646799147353207E-16, -1.000000000000000000 ) ) ;
#98 = DATE_AND_TIME ( #199, #149 ) ;
#99 = AXIS2_PLACEMENT_3D ( 'NONE', #86, #97, #159 ) ;
#100 = PERSON_AND_ORGANIZATION_ROLE ( 'design_supplier' ) ;
#101 = CARTESIAN_POINT ( 'NONE',  ( 1.316288464743861212E-13, -4.616918432785521081E-15, 37.69999999999999574 ) ) ;
#102 = EDGE_CURVE ( 'NONE', #165, #165, #200, .T. ) ;
#103 = CC_DESIGN_APPROVAL ( #195, ( #62 ) ) ;
#104 = DESIGN_CONTEXT ( 'detailed design', #93, 'design' ) ;
#105 = CARTESIAN_POINT ( 'NONE',  ( 1.316288464743861212E-13, -4.616918432785521081E-15, 37.69999999999999574 ) ) ;
#106 = CONICAL_SURFACE ( 'NONE', #21, 1.500000000000000000, 0.7853981633974453924 ) ;
#107 = ORIENTED_EDGE ( 'NONE', *, *, #166, .F. ) ;
#108 = CC_DESIGN_PERSON_AND_ORGANIZATION_ASSIGNMENT ( #22, #121, ( #132 ) ) ;
#109 = PERSON_AND_ORGANIZATION_ROLE ( 'design_owner' ) ;
#110 = CARTESIAN_POINT ( 'NONE',  ( 1.400543856282157492E-14, -4.912446564098605137E-16, 4.011317032403825422 ) ) ;
#111 = ORIENTED_EDGE ( 'NONE', *, *, #20, .F. ) ;
#112 = CIRCLE ( 'NONE', #67, 0.04000000000000024369 ) ;
#113 = PLANE ( 'NONE',  #99 ) ;
#114 = CC_DESIGN_PERSON_AND_ORGANIZATION_ASSIGNMENT ( #178, #100, ( #132 ) ) ;
#115 = DIRECTION ( 'NONE',  ( 0.0000000000000000000, 1.000000000000000000, 0.0000000000000000000 ) ) ;
#116 = ORGANIZATION ( 'UNSPECIFIED', 'UNSPECIFIED', '' ) ;
#117 = CARTESIAN_POINT ( 'NONE',  ( 1.316288464743861212E-13, 1.499999999999995559, 37.69999999999999574 ) ) ;
#118 = PRODUCT_RELATED_PRODUCT_CATEGORY ( 'detail', '', ( #180 ) ) ;
#119 = COORDINATED_UNIVERSAL_TIME_OFFSET ( 1, 0, .AHEAD. ) ;
#120 = APPLICATION_CONTEXT ( 'configuration controlled 3d designs of mechanical parts and assemblies' ) ;
#121 = PERSON_AND_ORGANIZATION_ROLE ( 'creator' ) ;
#122 = CC_DESIGN_APPROVAL ( #68, ( #63 ) ) ;
#123 = DIRECTION ( 'NONE',  ( 0.0000000000000000000, 1.000000000000000000, 0.0000000000000000000 ) ) ;
#124 = CLOSED_SHELL ( 'NONE', ( #91, #185, #127, #202 ) ) ;
#125 = EDGE_LOOP ( 'NONE', ( #15 ) ) ;
#126 = CARTESIAN_POINT ( 'NONE',  ( 1.326762908760390423E-13, -4.653657836759941941E-15, 38.00000000000000000 ) ) ;
#127 = ADVANCED_FACE ( 'NONE', ( #23, #56 ), #106, .T. ) ;
#128 = CIRCLE ( 'NONE', #201, 1.500000000000000000 ) ;
#129 = DIRECTION ( 'NONE',  ( 4.275831445896957731E-31, 1.000000000000000000, 1.224646799147352961E-16 ) ) ;
#130 = DIRECTION ( 'NONE',  ( -3.491481338843133355E-15, 1.224646799147353207E-16, -1.000000000000000000 ) ) ;
#131 = ORIENTED_EDGE ( 'NONE', *, *, #102, .F. ) ;
#132 = PRODUCT_DEFINITION_FORMATION_WITH_SPECIFIED_SOURCE ( 'ANY', '', #180, .NOT_KNOWN. ) ;
#133 = ADVANCED_FACE ( 'NONE', ( #77 ), #64, .T. ) ;
#134 = DATE_AND_TIME ( #41, #83 ) ;
#135 = CARTESIAN_POINT ( 'NONE',  ( 1.326762908760390423E-13, 1.199999999999995515, 38.00000000000000000 ) ) ;
#136 = APPROVAL_DATE_TIME ( #98, #150 ) ;
#137 = DATE_AND_TIME ( #89, #198 ) ;
#138 = CARTESIAN_POINT ( 'NONE',  ( 1.400543856282157492E-14, -4.912446564098605137E-16, 4.011317032403825422 ) ) ;
#139 = MANIFOLD_SOLID_BREP ( 'Corps-Déplacer/Copier1[1]', #124 ) ;
#140 = ORIENTED_EDGE ( 'NONE', *, *, #166, .T. ) ;
#141 = DIRECTION ( 'NONE',  ( -4.275831445896958607E-31, -1.000000000000000000, -1.224646799147353207E-16 ) ) ;
#142 = EDGE_LOOP ( 'NONE', ( #29 ) ) ;
#143 = AXIS2_PLACEMENT_3D ( 'NONE', #188, #94, #186 ) ;
#144 = DIRECTION ( 'NONE',  ( -3.491481338843133355E-15, 1.224646799147353207E-16, -1.000000000000000000 ) ) ;
#145 = ORIENTED_EDGE ( 'NONE', *, *, #174, .T. ) ;
#146 = FACE_OUTER_BOUND ( 'NONE', #142, .T. ) ;
#147 = VERTEX_POINT ( 'NONE', #3 ) ;
#148 = DIRECTION ( 'NONE',  ( 4.275831445896959482E-31, 1.000000000000000000, 1.224646799147353207E-16 ) ) ;
#149 = LOCAL_TIME ( 11, 21, 31.00000000000000000, #164 ) ;
#150 = APPROVAL ( #25, 'UNSPECIFIED' ) ;
#151 = DIRECTION ( 'NONE',  ( -3.491481338843133355E-15, 1.224646799147353207E-16, -1.000000000000000000 ) ) ;
#152 = CIRCLE ( 'NONE', #88, 1.500000000000000000 ) ;
#153 = CC_DESIGN_PERSON_AND_ORGANIZATION_ASSIGNMENT ( #177, #73, ( #62 ) ) ;
#154 = DIRECTION ( 'NONE',  ( -3.491481338843133355E-15, 1.224646799147353207E-16, -1.000000000000000000 ) ) ;
#155 = APPLICATION_PROTOCOL_DEFINITION ( 'international standard', 'config_control_design', 1994, #93 ) ;
#156 = CALENDAR_DATE ( 2021, 22, 11 ) ;
#157 = DIRECTION ( 'NONE',  ( 1.000000000000000000, 0.0000000000000000000, 0.0000000000000000000 ) ) ;
#158 = COORDINATED_UNIVERSAL_TIME_OFFSET ( 1, 0, .AHEAD. ) ;
#159 = DIRECTION ( 'NONE',  ( 4.275831445896958607E-31, 1.000000000000000000, 1.224646799147353207E-16 ) ) ;
#160 = DATE_AND_TIME ( #156, #183 ) ;
#161 = CARTESIAN_POINT ( 'NONE',  ( -2.301812524103531687E-32, 8.073671505902121708E-34, -6.592653091098042719E-18 ) ) ;
#162 = PLANE ( 'NONE',  #179 ) ;
#163 = EDGE_LOOP ( 'NONE', ( #145 ) ) ;
#164 = COORDINATED_UNIVERSAL_TIME_OFFSET ( 1, 0, .AHEAD. ) ;
#165 = VERTEX_POINT ( 'NONE', #59 ) ;
#166 = EDGE_CURVE ( 'NONE', #39, #39, #128, .T. ) ;
#167 = CC_DESIGN_APPROVAL ( #150, ( #132 ) ) ;
#168 = CARTESIAN_POINT ( 'NONE',  ( -1.150906262051765844E-32, 4.036835752951060854E-34, -3.296326545549021360E-18 ) ) ;
#169 = EDGE_LOOP ( 'NONE', ( #65 ) ) ;
#170 = APPROVAL_STATUS ( 'not_yet_approved' ) ;
#171 = CARTESIAN_POINT ( 'NONE',  ( 0.0000000000000000000, 0.0000000000000000000, 0.0000000000000000000 ) ) ;
#172 = APPROVAL_ROLE ( '' ) ;
#173 = DIRECTION ( 'NONE',  ( 3.491481338843133355E-15, -1.224646799147353207E-16, 1.000000000000000000 ) ) ;
#174 = EDGE_CURVE ( 'NONE', #9, #9, #72, .T. ) ;
#175 = CARTESIAN_POINT ( 'NONE',  ( -5.914799457447379239E-33, 0.04000000000000024369, -1.694065894508600678E-18 ) ) ;
#176 = APPROVAL_PERSON_ORGANIZATION ( #60, #195, #75 ) ;
#177 = PERSON_AND_ORGANIZATION ( #96, #116 ) ;
#178 = PERSON_AND_ORGANIZATION ( #96, #116 ) ;
#179 = AXIS2_PLACEMENT_3D ( 'NONE', #196, #71, #53 ) ;
#180 = PRODUCT ( '326668', '326668', '', ( #51 ) ) ;
#181 = DATE_AND_TIME ( #12, #32 ) ;
#182 = ADVANCED_FACE ( 'NONE', ( #146 ), #47, .F. ) ;
#183 = LOCAL_TIME ( 11, 21, 31.00000000000000000, #158 ) ;
#184 =( LENGTH_UNIT ( ) NAMED_UNIT ( * ) SI_UNIT ( .MILLI., .METRE. ) );
#185 = ADVANCED_FACE ( 'NONE', ( #81, #1 ), #19, .T. ) ;
#186 = DIRECTION ( 'NONE',  ( -4.275831445896958607E-31, -1.000000000000000000, -1.224646799147353207E-16 ) ) ;
#187 = EDGE_LOOP ( 'NONE', ( #82 ) ) ;
#188 = CARTESIAN_POINT ( 'NONE',  ( 1.400543856282157807E-14, 1.124819836996392658E-32, 4.011317032403826310 ) ) ;
#189 = CONICAL_SURFACE ( 'NONE', #37, 1.500000000000000000, 0.3490658503988596784 ) ;
#190 = APPLICATION_PROTOCOL_DEFINITION ( 'international standard', 'config_control_design', 1994, #120 ) ;
#191 = ADVANCED_FACE ( 'NONE', ( #4, #69 ), #189, .T. ) ;
#192 = CARTESIAN_POINT ( 'NONE',  ( 1.400543856282157492E-14, -4.912446564098605137E-16, 4.011317032403825422 ) ) ;
#193 = FACE_OUTER_BOUND ( 'NONE', #169, .T. ) ;
#194 = DIRECTION ( 'NONE',  ( -3.491481338843133355E-15, 1.224646799147353207E-16, -1.000000000000000000 ) ) ;
#195 = APPROVAL ( #90, 'UNSPECIFIED' ) ;
#196 = CARTESIAN_POINT ( 'NONE',  ( 1.400543856282157807E-14, 1.124819836996392658E-32, 4.011317032403826310 ) ) ;
#197 = PERSON_AND_ORGANIZATION_ROLE ( 'creator' ) ;
#198 = LOCAL_TIME ( 11, 21, 31.00000000000000000, #40 ) ;
#199 = CALENDAR_DATE ( 2021, 22, 11 ) ;
#200 = CIRCLE ( 'NONE', #45, 1.500000000000000000 ) ;
#201 = AXIS2_PLACEMENT_3D ( 'NONE', #105, #144, #123 ) ;
#202 = ADVANCED_FACE ( 'NONE', ( #193 ), #113, .F. ) ;
#203 = APPROVAL_DATE_TIME ( #160, #68 ) ;
ENDSEC;
END-ISO-10303-21;
