ISO-10303-21;
HEADER;
FILE_DESCRIPTION (( 'STEP AP203' ),
    '1' );
FILE_NAME ('326667.step',
    '2021-11-22T10:21:30',
    ( '' ),
    ( '' ),
    'SwSTEP 2.0',
    'SolidWorks 2019',
    '' );
FILE_SCHEMA (( 'CONFIG_CONTROL_DESIGN' ));
ENDSEC;

DATA;
#1 = DIRECTION ( 'NONE',  ( 0.0000000000000000000, 1.000000000000000000, 0.0000000000000000000 ) ) ;
#2 = CALENDAR_DATE ( 2021, 22, 11 ) ;
#3 = COORDINATED_UNIVERSAL_TIME_OFFSET ( 1, 0, .AHEAD. ) ;
#4 = EDGE_LOOP ( 'NONE', ( #95 ) ) ;
#5 = DATE_AND_TIME ( #158, #185 ) ;
#6 = EDGE_CURVE ( 'NONE', #15, #15, #12, .T. ) ;
#7 = SECURITY_CLASSIFICATION ( '', '', #194 ) ;
#8 = FACE_OUTER_BOUND ( 'NONE', #19, .T. ) ;
#9 = PLANE ( 'NONE',  #23 ) ;
#10 = DIRECTION ( 'NONE',  ( 4.275831445896958607E-31, 1.000000000000000000, 1.224646799147353207E-16 ) ) ;
#11 = ORIENTED_EDGE ( 'NONE', *, *, #180, .F. ) ;
#12 = CIRCLE ( 'NONE', #112, 1.499999999999999778 ) ;
#13 = CIRCLE ( 'NONE', #87, 1.500000000000000000 ) ;
#14 = DIRECTION ( 'NONE',  ( -4.275831445896958607E-31, -1.000000000000000000, -1.224646799147353207E-16 ) ) ;
#15 = VERTEX_POINT ( 'NONE', #61 ) ;
#16 = APPROVAL_DATE_TIME ( #183, #153 ) ;
#17 = CARTESIAN_POINT ( 'NONE',  ( 0.0000000000000000000, 0.03500000000000021150, 0.0000000000000000000 ) ) ;
#18 = CARTESIAN_POINT ( 'NONE',  ( 1.405340239351616793E-14, -4.929270011235927830E-16, 4.025054419501098657 ) ) ;
#19 = EDGE_LOOP ( 'NONE', ( #73 ) ) ;
#20 = LOCAL_TIME ( 11, 21, 30.00000000000000000, #21 ) ;
#21 = COORDINATED_UNIVERSAL_TIME_OFFSET ( 1, 0, .AHEAD. ) ;
#22 = DATE_AND_TIME ( #67, #20 ) ;
#23 = AXIS2_PLACEMENT_3D ( 'NONE', #104, #26, #70 ) ;
#24 = DIRECTION ( 'NONE',  ( -3.491481338843133355E-15, 1.224646799147353207E-16, -1.000000000000000000 ) ) ;
#25 = ORIENTED_EDGE ( 'NONE', *, *, #115, .T. ) ;
#26 = DIRECTION ( 'NONE',  ( 3.491481338843133355E-15, -1.224646799147353207E-16, 1.000000000000000000 ) ) ;
#27 = DIRECTION ( 'NONE',  ( -3.491481338843133355E-15, 1.224646799147353207E-16, -1.000000000000000000 ) ) ;
#28 = CIRCLE ( 'NONE', #82, 0.03500000000000021150 ) ;
#29 = APPLICATION_PROTOCOL_DEFINITION ( 'international standard', 'config_control_design', 1994, #124 ) ;
#30 = COORDINATED_UNIVERSAL_TIME_OFFSET ( 1, 0, .AHEAD. ) ;
#31 = UNCERTAINTY_MEASURE_WITH_UNIT (LENGTH_MEASURE( 1.000000000000000082E-05 ), #109, 'distance_accuracy_value', 'NONE');
#32 = PRODUCT ( '326667', '326667', '', ( #99 ) ) ;
#33 = AXIS2_PLACEMENT_3D ( 'NONE', #152, #97, #114 ) ;
#34 = APPROVAL_ROLE ( '' ) ;
#35 = PRODUCT_DEFINITION ( 'UNKNOWN', '', #63, #102 ) ;
#36 = CARTESIAN_POINT ( 'NONE',  ( 0.0000000000000000000, 0.0000000000000000000, 0.0000000000000000000 ) ) ;
#37 = CARTESIAN_POINT ( 'NONE',  ( 1.405340239351616793E-14, -4.929270011235927830E-16, 4.025054419501098657 ) ) ;
#38 = ORIENTED_EDGE ( 'NONE', *, *, #119, .F. ) ;
#39 = ADVANCED_FACE ( 'NONE', ( #93, #146 ), #200, .T. ) ;
#40 = AXIS2_PLACEMENT_3D ( 'NONE', #196, #53, #169 ) ;
#41 = DIRECTION ( 'NONE',  ( 3.491481338843133355E-15, -1.224646799147353207E-16, 1.000000000000000000 ) ) ;
#42 = EDGE_LOOP ( 'NONE', ( #166 ) ) ;
#43 = AXIS2_PLACEMENT_3D ( 'NONE', #199, #148, #10 ) ;
#44 = CLOSED_SHELL ( 'NONE', ( #187, #150, #177, #46 ) ) ;
#45 = CARTESIAN_POINT ( 'NONE',  ( 1.316288464743861212E-13, -4.616918432785521081E-15, 37.69999999999999574 ) ) ;
#46 = ADVANCED_FACE ( 'NONE', ( #161 ), #68, .F. ) ;
#47 = PERSON_AND_ORGANIZATION ( #179, #78 ) ;
#48 = DIRECTION ( 'NONE',  ( 1.000000000000000000, 0.0000000000000000000, 0.0000000000000000000 ) ) ;
#49 = AXIS2_PLACEMENT_3D ( 'NONE', #118, #27, #1 ) ;
#50 = APPLICATION_CONTEXT ( 'configuration controlled 3d designs of mechanical parts and assemblies' ) ;
#51 = DATE_TIME_ROLE ( 'classification_date' ) ;
#52 = APPROVAL_ROLE ( '' ) ;
#53 = DIRECTION ( 'NONE',  ( -3.491481338843133355E-15, 1.224646799147353207E-16, -1.000000000000000000 ) ) ;
#54 = ORIENTED_EDGE ( 'NONE', *, *, #86, .T. ) ;
#55 =( NAMED_UNIT ( * ) PLANE_ANGLE_UNIT ( ) SI_UNIT ( $, .RADIAN. ) );
#56 = EDGE_LOOP ( 'NONE', ( #176 ) ) ;
#57 = DIRECTION ( 'NONE',  ( -3.491481338843133355E-15, 1.224646799147353207E-16, -1.000000000000000000 ) ) ;
#58 = ADVANCED_FACE ( 'NONE', ( #142 ), #9, .T. ) ;
#59 = DATE_AND_TIME ( #117, #89 ) ;
#60 = PERSON_AND_ORGANIZATION_ROLE ( 'design_owner' ) ;
#61 = CARTESIAN_POINT ( 'NONE',  ( 1.405340239351616793E-14, 1.499999999999999334, 4.025054419501098657 ) ) ;
#62 = CARTESIAN_POINT ( 'NONE',  ( 1.326762908760390423E-13, 1.199999999999995515, 38.00000000000000000 ) ) ;
#63 = PRODUCT_DEFINITION_FORMATION_WITH_SPECIFIED_SOURCE ( 'ANY', '', #32, .NOT_KNOWN. ) ;
#64 = APPROVAL ( #145, 'UNSPECIFIED' ) ;
#65 = DIRECTION ( 'NONE',  ( -3.491481338843133355E-15, 1.224646799147353207E-16, -1.000000000000000000 ) ) ;
#66 = APPROVAL_PERSON_ORGANIZATION ( #160, #202, #34 ) ;
#67 = CALENDAR_DATE ( 2021, 22, 11 ) ;
#68 = PLANE ( 'NONE',  #43 ) ;
#69 = CC_DESIGN_DATE_AND_TIME_ASSIGNMENT ( #123, #103, ( #35 ) ) ;
#70 = DIRECTION ( 'NONE',  ( -4.275831445896958607E-31, -1.000000000000000000, -1.224646799147353207E-16 ) ) ;
#71 = ADVANCED_BREP_SHAPE_REPRESENTATION ( '326667', ( #75, #143, #72 ), #171 ) ;
#72 = AXIS2_PLACEMENT_3D ( 'NONE', #197, #133, #48 ) ;
#73 = ORIENTED_EDGE ( 'NONE', *, *, #6, .F. ) ;
#74 = PERSON_AND_ORGANIZATION ( #179, #78 ) ;
#75 = MANIFOLD_SOLID_BREP ( 'Corps-Déplacer/Copier1[1]', #44 ) ;
#76 = AXIS2_PLACEMENT_3D ( 'NONE', #137, #41, #14 ) ;
#77 = VERTEX_POINT ( 'NONE', #172 ) ;
#78 = ORGANIZATION ( 'UNSPECIFIED', 'UNSPECIFIED', '' ) ;
#79 = APPROVAL_STATUS ( 'not_yet_approved' ) ;
#80 = APPROVAL_DATE_TIME ( #5, #202 ) ;
#81 = FACE_BOUND ( 'NONE', #96, .T. ) ;
#82 = AXIS2_PLACEMENT_3D ( 'NONE', #198, #113, #85 ) ;
#83 = APPLICATION_PROTOCOL_DEFINITION ( 'international standard', 'config_control_design', 1994, #50 ) ;
#84 = FACE_OUTER_BOUND ( 'NONE', #42, .T. ) ;
#85 = DIRECTION ( 'NONE',  ( 4.275831445896958607E-31, 1.000000000000000000, 1.224646799147353207E-16 ) ) ;
#86 = EDGE_CURVE ( 'NONE', #156, #156, #28, .T. ) ;
#87 = AXIS2_PLACEMENT_3D ( 'NONE', #45, #175, #151 ) ;
#88 = EDGE_LOOP ( 'NONE', ( #38 ) ) ;
#89 = LOCAL_TIME ( 11, 21, 30.00000000000000000, #181 ) ;
#90 = CC_DESIGN_APPROVAL ( #202, ( #63 ) ) ;
#91 = PERSON_AND_ORGANIZATION ( #179, #78 ) ;
#92 = CC_DESIGN_DATE_AND_TIME_ASSIGNMENT ( #22, #51, ( #7 ) ) ;
#93 = FACE_BOUND ( 'NONE', #56, .T. ) ;
#94 = AXIS2_PLACEMENT_3D ( 'NONE', #18, #167, #163 ) ;
#95 = ORIENTED_EDGE ( 'NONE', *, *, #180, .T. ) ;
#96 = EDGE_LOOP ( 'NONE', ( #25 ) ) ;
#97 = DIRECTION ( 'NONE',  ( 3.491481338843133355E-15, -1.224646799147353207E-16, 1.000000000000000000 ) ) ;
#98 = CC_DESIGN_APPROVAL ( #153, ( #35 ) ) ;
#99 = MECHANICAL_CONTEXT ( 'NONE', #50, 'mechanical' ) ;
#100 = VERTEX_POINT ( 'NONE', #62 ) ;
#101 = PRODUCT_RELATED_PRODUCT_CATEGORY ( 'detail', '', ( #32 ) ) ;
#102 = DESIGN_CONTEXT ( 'detailed design', #124, 'design' ) ;
#103 = DATE_TIME_ROLE ( 'creation_date' ) ;
#104 = CARTESIAN_POINT ( 'NONE',  ( 1.405340239351616793E-14, 1.174693759830023048E-31, 4.025054419501098657 ) ) ;
#105 = PERSON_AND_ORGANIZATION_ROLE ( 'classification_officer' ) ;
#106 = APPROVAL_PERSON_ORGANIZATION ( #91, #64, #52 ) ;
#107 = CC_DESIGN_PERSON_AND_ORGANIZATION_ASSIGNMENT ( #138, #170, ( #35 ) ) ;
#108 = EDGE_LOOP ( 'NONE', ( #128 ) ) ;
#109 =( LENGTH_UNIT ( ) NAMED_UNIT ( * ) SI_UNIT ( .MILLI., .METRE. ) );
#110 = CARTESIAN_POINT ( 'NONE',  ( 1.326762908760390423E-13, -4.653657836759941941E-15, 38.00000000000000000 ) ) ;
#111 =( NAMED_UNIT ( * ) SI_UNIT ( $, .STERADIAN. ) SOLID_ANGLE_UNIT ( ) );
#112 = AXIS2_PLACEMENT_3D ( 'NONE', #37, #65, #159 ) ;
#113 = DIRECTION ( 'NONE',  ( -3.491481338843133355E-15, 1.224646799147353207E-16, -1.000000000000000000 ) ) ;
#114 = DIRECTION ( 'NONE',  ( -4.275831445896958607E-31, -1.000000000000000000, -1.224646799147353207E-16 ) ) ;
#115 = EDGE_CURVE ( 'NONE', #100, #100, #141, .T. ) ;
#116 = APPROVAL_ROLE ( '' ) ;
#117 = CALENDAR_DATE ( 2021, 22, 11 ) ;
#118 = CARTESIAN_POINT ( 'NONE',  ( 1.405340239351616793E-14, -4.929270011235927830E-16, 4.025054419501098657 ) ) ;
#119 = EDGE_CURVE ( 'NONE', #121, #121, #13, .T. ) ;
#120 = CC_DESIGN_APPROVAL ( #64, ( #7 ) ) ;
#121 = VERTEX_POINT ( 'NONE', #186 ) ;
#122 = PERSON_AND_ORGANIZATION ( #179, #78 ) ;
#123 = DATE_AND_TIME ( #2, #157 ) ;
#124 = APPLICATION_CONTEXT ( 'configuration controlled 3d designs of mechanical parts and assemblies' ) ;
#125 = AXIS2_PLACEMENT_3D ( 'NONE', #36, #57, #178 ) ;
#126 = CC_DESIGN_PERSON_AND_ORGANIZATION_ASSIGNMENT ( #122, #129, ( #63 ) ) ;
#127 = EDGE_LOOP ( 'NONE', ( #130 ) ) ;
#128 = ORIENTED_EDGE ( 'NONE', *, *, #6, .T. ) ;
#129 = PERSON_AND_ORGANIZATION_ROLE ( 'design_supplier' ) ;
#130 = ORIENTED_EDGE ( 'NONE', *, *, #115, .F. ) ;
#131 = CLOSED_SHELL ( 'NONE', ( #193, #39, #58 ) ) ;
#132 = EDGE_LOOP ( 'NONE', ( #54 ) ) ;
#133 = DIRECTION ( 'NONE',  ( 0.0000000000000000000, 0.0000000000000000000, 1.000000000000000000 ) ) ;
#134 = PERSON_AND_ORGANIZATION ( #179, #78 ) ;
#135 = CALENDAR_DATE ( 2021, 22, 11 ) ;
#136 = AXIS2_PLACEMENT_3D ( 'NONE', #110, #24, #190 ) ;
#137 = CARTESIAN_POINT ( 'NONE',  ( -7.482705030319722502E-33, 2.624579619658266551E-34, -2.143131898507881086E-18 ) ) ;
#138 = PERSON_AND_ORGANIZATION ( #179, #78 ) ;
#139 = APPROVAL_DATE_TIME ( #59, #64 ) ;
#140 = FACE_OUTER_BOUND ( 'NONE', #108, .T. ) ;
#141 = CIRCLE ( 'NONE', #136, 1.200000000000000178 ) ;
#142 = FACE_OUTER_BOUND ( 'NONE', #149, .T. ) ;
#143 = MANIFOLD_SOLID_BREP ( 'Corps-Déplacer/Copier1[2]', #131 ) ;
#144 = CC_DESIGN_PERSON_AND_ORGANIZATION_ASSIGNMENT ( #74, #60, ( #32 ) ) ;
#145 = APPROVAL_STATUS ( 'not_yet_approved' ) ;
#146 = FACE_OUTER_BOUND ( 'NONE', #4, .T. ) ;
#147 = CC_DESIGN_SECURITY_CLASSIFICATION ( #7, ( #63 ) ) ;
#148 = DIRECTION ( 'NONE',  ( -3.491481338843133355E-15, 1.224646799147353207E-16, -1.000000000000000000 ) ) ;
#149 = EDGE_LOOP ( 'NONE', ( #11 ) ) ;
#150 = ADVANCED_FACE ( 'NONE', ( #84, #8 ), #201, .T. ) ;
#151 = DIRECTION ( 'NONE',  ( 0.0000000000000000000, 1.000000000000000000, 0.0000000000000000000 ) ) ;
#152 = CARTESIAN_POINT ( 'NONE',  ( 1.405340239351616793E-14, 1.174693759830023048E-31, 4.025054419501098657 ) ) ;
#153 = APPROVAL ( #182, 'UNSPECIFIED' ) ;
#154 = LOCAL_TIME ( 11, 21, 30.00000000000000000, #30 ) ;
#155 = FACE_OUTER_BOUND ( 'NONE', #132, .T. ) ;
#156 = VERTEX_POINT ( 'NONE', #17 ) ;
#157 = LOCAL_TIME ( 11, 21, 30.00000000000000000, #3 ) ;
#158 = CALENDAR_DATE ( 2021, 22, 11 ) ;
#159 = DIRECTION ( 'NONE',  ( 0.0000000000000000000, 1.000000000000000000, 0.0000000000000000000 ) ) ;
#160 = PERSON_AND_ORGANIZATION ( #179, #78 ) ;
#161 = FACE_OUTER_BOUND ( 'NONE', #127, .T. ) ;
#162 = PERSON_AND_ORGANIZATION_ROLE ( 'creator' ) ;
#163 = DIRECTION ( 'NONE',  ( 0.0000000000000000000, -1.000000000000000000, 0.0000000000000000000 ) ) ;
#164 = CIRCLE ( 'NONE', #49, 1.499999999999999778 ) ;
#165 = CC_DESIGN_PERSON_AND_ORGANIZATION_ASSIGNMENT ( #192, #162, ( #63 ) ) ;
#166 = ORIENTED_EDGE ( 'NONE', *, *, #119, .T. ) ;
#167 = DIRECTION ( 'NONE',  ( 3.491481338843133355E-15, -1.224646799147353207E-16, 1.000000000000000000 ) ) ;
#168 = PLANE ( 'NONE',  #76 ) ;
#169 = DIRECTION ( 'NONE',  ( 0.0000000000000000000, 1.000000000000000000, 0.0000000000000000000 ) ) ;
#170 = PERSON_AND_ORGANIZATION_ROLE ( 'creator' ) ;
#171 =( GEOMETRIC_REPRESENTATION_CONTEXT ( 3 ) GLOBAL_UNCERTAINTY_ASSIGNED_CONTEXT ( ( #31 ) ) GLOBAL_UNIT_ASSIGNED_CONTEXT ( ( #109, #55, #111 ) ) REPRESENTATION_CONTEXT ( 'NONE', 'WORKASPACE' ) );
#172 = CARTESIAN_POINT ( 'NONE',  ( 1.405340239351616793E-14, 1.499999999999999334, 4.025054419501098657 ) ) ;
#173 = CC_DESIGN_PERSON_AND_ORGANIZATION_ASSIGNMENT ( #47, #105, ( #7 ) ) ;
#174 = FACE_OUTER_BOUND ( 'NONE', #88, .T. ) ;
#175 = DIRECTION ( 'NONE',  ( -3.491481338843133355E-15, 1.224646799147353207E-16, -1.000000000000000000 ) ) ;
#176 = ORIENTED_EDGE ( 'NONE', *, *, #86, .F. ) ;
#177 = ADVANCED_FACE ( 'NONE', ( #81, #174 ), #189, .T. ) ;
#178 = DIRECTION ( 'NONE',  ( 4.275831445896959482E-31, 1.000000000000000000, 1.224646799147353207E-16 ) ) ;
#179 = PERSON ( 'UNSPECIFIED', 'UNSPECIFIED', 'UNSPECIFIED', ('UNSPECIFIED'), ('UNSPECIFIED'), ('UNSPECIFIED') ) ;
#180 = EDGE_CURVE ( 'NONE', #77, #77, #164, .T. ) ;
#181 = COORDINATED_UNIVERSAL_TIME_OFFSET ( 1, 0, .AHEAD. ) ;
#182 = APPROVAL_STATUS ( 'not_yet_approved' ) ;
#183 = DATE_AND_TIME ( #135, #154 ) ;
#184 = SHAPE_DEFINITION_REPRESENTATION ( #191, #71 ) ;
#185 = LOCAL_TIME ( 11, 21, 30.00000000000000000, #188 ) ;
#186 = CARTESIAN_POINT ( 'NONE',  ( 1.316288464743861212E-13, 1.499999999999995559, 37.69999999999999574 ) ) ;
#187 = ADVANCED_FACE ( 'NONE', ( #140 ), #203, .F. ) ;
#188 = COORDINATED_UNIVERSAL_TIME_OFFSET ( 1, 0, .AHEAD. ) ;
#189 = CONICAL_SURFACE ( 'NONE', #40, 1.500000000000000000, 0.7853981633974453924 ) ;
#190 = DIRECTION ( 'NONE',  ( 0.0000000000000000000, 1.000000000000000000, 0.0000000000000000000 ) ) ;
#191 = PRODUCT_DEFINITION_SHAPE ( 'NONE', 'NONE',  #35 ) ;
#192 = PERSON_AND_ORGANIZATION ( #179, #78 ) ;
#193 = ADVANCED_FACE ( 'NONE', ( #155 ), #168, .F. ) ;
#194 = SECURITY_CLASSIFICATION_LEVEL ( 'unclassified' ) ;
#195 = APPROVAL_PERSON_ORGANIZATION ( #134, #153, #116 ) ;
#196 = CARTESIAN_POINT ( 'NONE',  ( 1.316288464743861212E-13, -4.616918432785521081E-15, 37.69999999999999574 ) ) ;
#197 = CARTESIAN_POINT ( 'NONE',  ( 0.0000000000000000000, 0.0000000000000000000, 0.0000000000000000000 ) ) ;
#198 = CARTESIAN_POINT ( 'NONE',  ( -1.496541006063944500E-32, 5.249159239316533102E-34, -4.286263797015762171E-18 ) ) ;
#199 = CARTESIAN_POINT ( 'NONE',  ( 1.326762908760390423E-13, 8.998558695971078593E-33, 38.00000000000000000 ) ) ;
#200 = CONICAL_SURFACE ( 'NONE', #94, 1.499999999999999778, 0.3490658503988596228 ) ;
#201 = CYLINDRICAL_SURFACE ( 'NONE', #125, 1.500000000000000000 ) ;
#202 = APPROVAL ( #79, 'UNSPECIFIED' ) ;
#203 = PLANE ( 'NONE',  #33 ) ;
ENDSEC;
END-ISO-10303-21;
