ISO-10303-21;
HEADER;
FILE_DESCRIPTION (( 'STEP AP203' ),
    '1' );
FILE_NAME ('326666.step',
    '2021-11-22T10:21:30',
    ( '' ),
    ( '' ),
    'SwSTEP 2.0',
    'SolidWorks 2019',
    '' );
FILE_SCHEMA (( 'CONFIG_CONTROL_DESIGN' ));
ENDSEC;

DATA;
#1 = FACE_OUTER_BOUND ( 'NONE', #140, .T. ) ;
#2 = CYLINDRICAL_SURFACE ( 'NONE', #156, 1.499999999999999556 ) ;
#3 = APPLICATION_PROTOCOL_DEFINITION ( 'international standard', 'config_control_design', 1994, #59 ) ;
#4 = DIRECTION ( 'NONE',  ( 4.275831445896958607E-31, 1.000000000000000000, 1.224646799147353207E-16 ) ) ;
#5 =( GEOMETRIC_REPRESENTATION_CONTEXT ( 3 ) GLOBAL_UNCERTAINTY_ASSIGNED_CONTEXT ( ( #182 ) ) GLOBAL_UNIT_ASSIGNED_CONTEXT ( ( #107, #167, #56 ) ) REPRESENTATION_CONTEXT ( 'NONE', 'WORKASPACE' ) );
#6 = DATE_AND_TIME ( #160, #15 ) ;
#7 = AXIS2_PLACEMENT_3D ( 'NONE', #20, #100, #19 ) ;
#8 = DATE_AND_TIME ( #69, #124 ) ;
#9 = EDGE_CURVE ( 'NONE', #54, #54, #43, .T. ) ;
#10 = PERSON_AND_ORGANIZATION_ROLE ( 'classification_officer' ) ;
#11 = CARTESIAN_POINT ( 'NONE',  ( 1.414933005490535710E-14, 2.343339176461733700E-15, 4.052529193695645127 ) ) ;
#12 = DIRECTION ( 'NONE',  ( 0.0000000000000000000, 1.000000000000000000, 0.0000000000000000000 ) ) ;
#13 = CARTESIAN_POINT ( 'NONE',  ( 1.316288464743861212E-13, -4.616918432785521081E-15, 37.69999999999999574 ) ) ;
#14 = CARTESIAN_POINT ( 'NONE',  ( 1.414933005490535710E-14, -4.962916905510576175E-16, 4.052529193695645127 ) ) ;
#15 = LOCAL_TIME ( 11, 21, 30.00000000000000000, #149 ) ;
#16 = PERSON ( 'UNSPECIFIED', 'UNSPECIFIED', 'UNSPECIFIED', ('UNSPECIFIED'), ('UNSPECIFIED'), ('UNSPECIFIED') ) ;
#17 = ORIENTED_EDGE ( 'NONE', *, *, #9, .F. ) ;
#18 = ORIENTED_EDGE ( 'NONE', *, *, #145, .T. ) ;
#19 = DIRECTION ( 'NONE',  ( -4.275831445896958607E-31, -1.000000000000000000, -1.224646799147353207E-16 ) ) ;
#20 = CARTESIAN_POINT ( 'NONE',  ( -1.125958876481861048E-32, 3.949332103581988312E-34, -3.224874393442801123E-18 ) ) ;
#21 = FACE_BOUND ( 'NONE', #185, .T. ) ;
#22 = EDGE_CURVE ( 'NONE', #117, #117, #84, .T. ) ;
#23 = AXIS2_PLACEMENT_3D ( 'NONE', #123, #65, #143 ) ;
#24 = PERSON_AND_ORGANIZATION ( #16, #173 ) ;
#25 = PERSON_AND_ORGANIZATION_ROLE ( 'design_owner' ) ;
#26 = AXIS2_PLACEMENT_3D ( 'NONE', #74, #133, #198 ) ;
#27 = VERTEX_POINT ( 'NONE', #152 ) ;
#28 = DIRECTION ( 'NONE',  ( -4.275831445896958607E-31, -1.000000000000000000, -1.224646799147353207E-16 ) ) ;
#29 = FACE_OUTER_BOUND ( 'NONE', #61, .T. ) ;
#30 = PRODUCT_DEFINITION ( 'UNKNOWN', '', #164, #200 ) ;
#31 = EDGE_LOOP ( 'NONE', ( #201 ) ) ;
#32 = LOCAL_TIME ( 11, 21, 30.00000000000000000, #102 ) ;
#33 = CLOSED_SHELL ( 'NONE', ( #114, #44, #202, #38 ) ) ;
#34 = EDGE_LOOP ( 'NONE', ( #120 ) ) ;
#35 = DIRECTION ( 'NONE',  ( 3.491481338843133355E-15, -1.224646799147353207E-16, 1.000000000000000000 ) ) ;
#36 = PLANE ( 'NONE',  #7 ) ;
#37 = CIRCLE ( 'NONE', #106, 0.02500000000000014710 ) ;
#38 = ADVANCED_FACE ( 'NONE', ( #111 ), #126, .F. ) ;
#39 = SHAPE_DEFINITION_REPRESENTATION ( #177, #92 ) ;
#40 = CALENDAR_DATE ( 2021, 22, 11 ) ;
#41 = CC_DESIGN_APPROVAL ( #153, ( #164 ) ) ;
#42 = DIRECTION ( 'NONE',  ( 3.491481338843133355E-15, -1.224646799147353207E-16, 1.000000000000000000 ) ) ;
#43 = CIRCLE ( 'NONE', #109, 1.499999999999999334 ) ;
#44 = ADVANCED_FACE ( 'NONE', ( #159, #1 ), #2, .T. ) ;
#45 = MANIFOLD_SOLID_BREP ( 'Corps-Déplacer/Copier1[2]', #161 ) ;
#46 = ORIENTED_EDGE ( 'NONE', *, *, #22, .F. ) ;
#47 = APPLICATION_CONTEXT ( 'configuration controlled 3d designs of mechanical parts and assemblies' ) ;
#48 = DIRECTION ( 'NONE',  ( -3.491481338843133355E-15, 1.224646799147353207E-16, -1.000000000000000000 ) ) ;
#49 = CARTESIAN_POINT ( 'NONE',  ( 1.326762908760390423E-13, 8.998558695971078593E-33, 38.00000000000000000 ) ) ;
#50 = APPROVAL_PERSON_ORGANIZATION ( #130, #127, #178 ) ;
#51 = APPROVAL_STATUS ( 'not_yet_approved' ) ;
#52 = SECURITY_CLASSIFICATION_LEVEL ( 'unclassified' ) ;
#53 = PERSON_AND_ORGANIZATION ( #16, #173 ) ;
#54 = VERTEX_POINT ( 'NONE', #58 ) ;
#55 = APPROVAL_PERSON_ORGANIZATION ( #163, #63, #113 ) ;
#56 =( NAMED_UNIT ( * ) SI_UNIT ( $, .STERADIAN. ) SOLID_ANGLE_UNIT ( ) );
#57 = EDGE_CURVE ( 'NONE', #27, #27, #134, .T. ) ;
#58 = CARTESIAN_POINT ( 'NONE',  ( 1.414933005490535710E-14, 1.499999999999998890, 4.052529193695645127 ) ) ;
#59 = APPLICATION_CONTEXT ( 'configuration controlled 3d designs of mechanical parts and assemblies' ) ;
#60 = SECURITY_CLASSIFICATION ( '', '', #52 ) ;
#61 = EDGE_LOOP ( 'NONE', ( #168 ) ) ;
#62 = CC_DESIGN_PERSON_AND_ORGANIZATION_ASSIGNMENT ( #193, #10, ( #60 ) ) ;
#63 = APPROVAL ( #51, 'UNSPECIFIED' ) ;
#64 = DIRECTION ( 'NONE',  ( 0.0000000000000000000, 1.000000000000000000, 0.0000000000000000000 ) ) ;
#65 = DIRECTION ( 'NONE',  ( -3.491481338843133355E-15, 1.224646799147353207E-16, -1.000000000000000000 ) ) ;
#66 = APPROVAL_DATE_TIME ( #175, #63 ) ;
#67 = FACE_OUTER_BOUND ( 'NONE', #203, .T. ) ;
#68 = LOCAL_TIME ( 11, 21, 30.00000000000000000, #176 ) ;
#69 = CALENDAR_DATE ( 2021, 22, 11 ) ;
#70 = PERSON_AND_ORGANIZATION ( #16, #173 ) ;
#71 = DIRECTION ( 'NONE',  ( 4.275831445896958607E-31, 1.000000000000000000, 1.224646799147353207E-16 ) ) ;
#72 = AXIS2_PLACEMENT_3D ( 'NONE', #11, #42, #28 ) ;
#73 = ADVANCED_FACE ( 'NONE', ( #21, #187 ), #101, .T. ) ;
#74 = CARTESIAN_POINT ( 'NONE',  ( 0.0000000000000000000, 0.0000000000000000000, 0.0000000000000000000 ) ) ;
#75 = AXIS2_PLACEMENT_3D ( 'NONE', #81, #48, #157 ) ;
#76 = CARTESIAN_POINT ( 'NONE',  ( 1.316288464743861212E-13, 1.499999999999995559, 37.69999999999999574 ) ) ;
#77 = CC_DESIGN_APPROVAL ( #127, ( #30 ) ) ;
#78 = ORIENTED_EDGE ( 'NONE', *, *, #145, .F. ) ;
#79 = ADVANCED_FACE ( 'NONE', ( #97 ), #174, .T. ) ;
#80 = CARTESIAN_POINT ( 'NONE',  ( 1.414933005490535710E-14, -4.962916905510576175E-16, 4.052529193695645127 ) ) ;
#81 = CARTESIAN_POINT ( 'NONE',  ( 1.326762908760390423E-13, -4.653657836759941941E-15, 38.00000000000000000 ) ) ;
#82 = PERSON_AND_ORGANIZATION ( #16, #173 ) ;
#83 = CARTESIAN_POINT ( 'NONE',  ( 1.414933005490535710E-14, 2.343339176461733700E-15, 4.052529193695645127 ) ) ;
#84 = CIRCLE ( 'NONE', #23, 1.500000000000000000 ) ;
#85 = DATE_AND_TIME ( #40, #118 ) ;
#86 = APPROVAL_STATUS ( 'not_yet_approved' ) ;
#87 = AXIS2_PLACEMENT_3D ( 'NONE', #80, #151, #181 ) ;
#88 = COORDINATED_UNIVERSAL_TIME_OFFSET ( 1, 0, .AHEAD. ) ;
#89 = AXIS2_PLACEMENT_3D ( 'NONE', #13, #132, #12 ) ;
#90 = MECHANICAL_CONTEXT ( 'NONE', #47, 'mechanical' ) ;
#91 = VERTEX_POINT ( 'NONE', #199 ) ;
#92 = ADVANCED_BREP_SHAPE_REPRESENTATION ( '326666', ( #110, #45, #26 ), #5 ) ;
#93 = CARTESIAN_POINT ( 'NONE',  ( -2.251917752963722095E-32, 7.898664207163976624E-34, -6.449748786885602247E-18 ) ) ;
#94 = EDGE_LOOP ( 'NONE', ( #46 ) ) ;
#95 = AXIS2_PLACEMENT_3D ( 'NONE', #172, #158, #142 ) ;
#96 = ADVANCED_FACE ( 'NONE', ( #67 ), #36, .F. ) ;
#97 = FACE_OUTER_BOUND ( 'NONE', #169, .T. ) ;
#98 = DIRECTION ( 'NONE',  ( -4.275831445896958607E-31, -1.000000000000000000, -1.224646799147353207E-16 ) ) ;
#99 = PRODUCT ( '326666', '326666', '', ( #90 ) ) ;
#100 = DIRECTION ( 'NONE',  ( 3.491481338843133355E-15, -1.224646799147353207E-16, 1.000000000000000000 ) ) ;
#101 = CONICAL_SURFACE ( 'NONE', #95, 1.499999999999999334, 0.3490658503988596228 ) ;
#102 = COORDINATED_UNIVERSAL_TIME_OFFSET ( 1, 0, .AHEAD. ) ;
#103 = CC_DESIGN_PERSON_AND_ORGANIZATION_ASSIGNMENT ( #82, #116, ( #164 ) ) ;
#104 = DATE_TIME_ROLE ( 'creation_date' ) ;
#105 = PERSON_AND_ORGANIZATION ( #16, #173 ) ;
#106 = AXIS2_PLACEMENT_3D ( 'NONE', #93, #196, #71 ) ;
#107 =( LENGTH_UNIT ( ) NAMED_UNIT ( * ) SI_UNIT ( .MILLI., .METRE. ) );
#108 = EDGE_CURVE ( 'NONE', #197, #197, #195, .T. ) ;
#109 = AXIS2_PLACEMENT_3D ( 'NONE', #14, #137, #64 ) ;
#110 = MANIFOLD_SOLID_BREP ( 'Corps-Déplacer/Copier1[1]', #33 ) ;
#111 = FACE_OUTER_BOUND ( 'NONE', #34, .T. ) ;
#112 = DIRECTION ( 'NONE',  ( -3.491481338843133355E-15, 1.224646799147353207E-16, -1.000000000000000000 ) ) ;
#113 = APPROVAL_ROLE ( '' ) ;
#114 = ADVANCED_FACE ( 'NONE', ( #29 ), #166, .F. ) ;
#115 = PERSON_AND_ORGANIZATION_ROLE ( 'creator' ) ;
#116 = PERSON_AND_ORGANIZATION_ROLE ( 'design_supplier' ) ;
#117 = VERTEX_POINT ( 'NONE', #76 ) ;
#118 = LOCAL_TIME ( 11, 21, 30.00000000000000000, #192 ) ;
#119 = PRODUCT_RELATED_PRODUCT_CATEGORY ( 'detail', '', ( #99 ) ) ;
#120 = ORIENTED_EDGE ( 'NONE', *, *, #57, .F. ) ;
#121 = ORIENTED_EDGE ( 'NONE', *, *, #57, .T. ) ;
#122 = CARTESIAN_POINT ( 'NONE',  ( 0.0000000000000000000, 0.0000000000000000000, 0.0000000000000000000 ) ) ;
#123 = CARTESIAN_POINT ( 'NONE',  ( 1.316288464743861212E-13, -4.616918432785521081E-15, 37.69999999999999574 ) ) ;
#124 = LOCAL_TIME ( 11, 21, 30.00000000000000000, #88 ) ;
#125 = DATE_AND_TIME ( #148, #32 ) ;
#126 = PLANE ( 'NONE',  #146 ) ;
#127 = APPROVAL ( #86, 'UNSPECIFIED' ) ;
#128 = CALENDAR_DATE ( 2021, 22, 11 ) ;
#129 = APPROVAL_STATUS ( 'not_yet_approved' ) ;
#130 = PERSON_AND_ORGANIZATION ( #16, #173 ) ;
#131 = FACE_BOUND ( 'NONE', #139, .T. ) ;
#132 = DIRECTION ( 'NONE',  ( -3.491481338843133355E-15, 1.224646799147353207E-16, -1.000000000000000000 ) ) ;
#133 = DIRECTION ( 'NONE',  ( 0.0000000000000000000, 0.0000000000000000000, 1.000000000000000000 ) ) ;
#134 = CIRCLE ( 'NONE', #75, 1.200000000000000178 ) ;
#135 = CC_DESIGN_PERSON_AND_ORGANIZATION_ASSIGNMENT ( #24, #147, ( #164 ) ) ;
#136 = CARTESIAN_POINT ( 'NONE',  ( 1.414933005490535710E-14, 1.499999999999998890, 4.052529193695645127 ) ) ;
#137 = DIRECTION ( 'NONE',  ( -3.491481338843133355E-15, 1.224646799147353207E-16, -1.000000000000000000 ) ) ;
#138 = CONICAL_SURFACE ( 'NONE', #89, 1.500000000000000000, 0.7853981633974453924 ) ;
#139 = EDGE_LOOP ( 'NONE', ( #121 ) ) ;
#140 = EDGE_LOOP ( 'NONE', ( #183 ) ) ;
#141 = DIRECTION ( 'NONE',  ( -3.491481338843133355E-15, 1.224646799147353207E-16, -1.000000000000000000 ) ) ;
#142 = DIRECTION ( 'NONE',  ( 0.0000000000000000000, -1.000000000000000000, 0.0000000000000000000 ) ) ;
#143 = DIRECTION ( 'NONE',  ( 0.0000000000000000000, 1.000000000000000000, 0.0000000000000000000 ) ) ;
#144 = CC_DESIGN_APPROVAL ( #63, ( #60 ) ) ;
#145 = EDGE_CURVE ( 'NONE', #91, #91, #37, .T. ) ;
#146 = AXIS2_PLACEMENT_3D ( 'NONE', #49, #141, #188 ) ;
#147 = PERSON_AND_ORGANIZATION_ROLE ( 'creator' ) ;
#148 = CALENDAR_DATE ( 2021, 22, 11 ) ;
#149 = COORDINATED_UNIVERSAL_TIME_OFFSET ( 1, 0, .AHEAD. ) ;
#150 = CC_DESIGN_SECURITY_CLASSIFICATION ( #60, ( #164 ) ) ;
#151 = DIRECTION ( 'NONE',  ( -3.491481338843133355E-15, 1.224646799147353207E-16, -1.000000000000000000 ) ) ;
#152 = CARTESIAN_POINT ( 'NONE',  ( 1.326762908760390423E-13, 1.199999999999995515, 38.00000000000000000 ) ) ;
#153 = APPROVAL ( #129, 'UNSPECIFIED' ) ;
#154 = FACE_OUTER_BOUND ( 'NONE', #94, .T. ) ;
#155 = ORIENTED_EDGE ( 'NONE', *, *, #9, .T. ) ;
#156 = AXIS2_PLACEMENT_3D ( 'NONE', #122, #112, #4 ) ;
#157 = DIRECTION ( 'NONE',  ( 0.0000000000000000000, 1.000000000000000000, 0.0000000000000000000 ) ) ;
#158 = DIRECTION ( 'NONE',  ( 3.491481338843133355E-15, -1.224646799147353207E-16, 1.000000000000000000 ) ) ;
#159 = FACE_OUTER_BOUND ( 'NONE', #31, .T. ) ;
#160 = CALENDAR_DATE ( 2021, 22, 11 ) ;
#161 = CLOSED_SHELL ( 'NONE', ( #96, #73, #79 ) ) ;
#162 = APPROVAL_DATE_TIME ( #6, #153 ) ;
#163 = PERSON_AND_ORGANIZATION ( #16, #173 ) ;
#164 = PRODUCT_DEFINITION_FORMATION_WITH_SPECIFIED_SOURCE ( 'ANY', '', #99, .NOT_KNOWN. ) ;
#165 = CC_DESIGN_PERSON_AND_ORGANIZATION_ASSIGNMENT ( #53, #25, ( #99 ) ) ;
#166 = PLANE ( 'NONE',  #72 ) ;
#167 =( NAMED_UNIT ( * ) PLANE_ANGLE_UNIT ( ) SI_UNIT ( $, .RADIAN. ) );
#168 = ORIENTED_EDGE ( 'NONE', *, *, #108, .T. ) ;
#169 = EDGE_LOOP ( 'NONE', ( #17 ) ) ;
#170 = CC_DESIGN_PERSON_AND_ORGANIZATION_ASSIGNMENT ( #70, #115, ( #30 ) ) ;
#171 = EDGE_LOOP ( 'NONE', ( #155 ) ) ;
#172 = CARTESIAN_POINT ( 'NONE',  ( 1.414933005490535710E-14, -4.962916905510576175E-16, 4.052529193695645127 ) ) ;
#173 = ORGANIZATION ( 'UNSPECIFIED', 'UNSPECIFIED', '' ) ;
#174 = PLANE ( 'NONE',  #186 ) ;
#175 = DATE_AND_TIME ( #128, #68 ) ;
#176 = COORDINATED_UNIVERSAL_TIME_OFFSET ( 1, 0, .AHEAD. ) ;
#177 = PRODUCT_DEFINITION_SHAPE ( 'NONE', 'NONE',  #30 ) ;
#178 = APPROVAL_ROLE ( '' ) ;
#179 = CC_DESIGN_DATE_AND_TIME_ASSIGNMENT ( #125, #194, ( #60 ) ) ;
#180 = APPLICATION_PROTOCOL_DEFINITION ( 'international standard', 'config_control_design', 1994, #47 ) ;
#181 = DIRECTION ( 'NONE',  ( 0.0000000000000000000, 1.000000000000000000, 0.0000000000000000000 ) ) ;
#182 = UNCERTAINTY_MEASURE_WITH_UNIT (LENGTH_MEASURE( 1.000000000000000082E-05 ), #107, 'distance_accuracy_value', 'NONE');
#183 = ORIENTED_EDGE ( 'NONE', *, *, #108, .F. ) ;
#184 = CC_DESIGN_DATE_AND_TIME_ASSIGNMENT ( #85, #104, ( #30 ) ) ;
#185 = EDGE_LOOP ( 'NONE', ( #78 ) ) ;
#186 = AXIS2_PLACEMENT_3D ( 'NONE', #83, #35, #98 ) ;
#187 = FACE_OUTER_BOUND ( 'NONE', #171, .T. ) ;
#188 = DIRECTION ( 'NONE',  ( 4.275831445896958607E-31, 1.000000000000000000, 1.224646799147353207E-16 ) ) ;
#189 = APPROVAL_PERSON_ORGANIZATION ( #105, #153, #191 ) ;
#190 = APPROVAL_DATE_TIME ( #8, #127 ) ;
#191 = APPROVAL_ROLE ( '' ) ;
#192 = COORDINATED_UNIVERSAL_TIME_OFFSET ( 1, 0, .AHEAD. ) ;
#193 = PERSON_AND_ORGANIZATION ( #16, #173 ) ;
#194 = DATE_TIME_ROLE ( 'classification_date' ) ;
#195 = CIRCLE ( 'NONE', #87, 1.499999999999999334 ) ;
#196 = DIRECTION ( 'NONE',  ( -3.491481338843133355E-15, 1.224646799147353207E-16, -1.000000000000000000 ) ) ;
#197 = VERTEX_POINT ( 'NONE', #136 ) ;
#198 = DIRECTION ( 'NONE',  ( 1.000000000000000000, 0.0000000000000000000, 0.0000000000000000000 ) ) ;
#199 = CARTESIAN_POINT ( 'NONE',  ( -1.182959891489475985E-32, 0.02500000000000014710, -3.388131789017201356E-18 ) ) ;
#200 = DESIGN_CONTEXT ( 'detailed design', #59, 'design' ) ;
#201 = ORIENTED_EDGE ( 'NONE', *, *, #22, .T. ) ;
#202 = ADVANCED_FACE ( 'NONE', ( #131, #154 ), #138, .T. ) ;
#203 = EDGE_LOOP ( 'NONE', ( #18 ) ) ;
ENDSEC;
END-ISO-10303-21;
