ISO-10303-21;
HEADER;
FILE_DESCRIPTION (( 'STEP AP203' ),
    '1' );
FILE_NAME ('326665.step',
    '2021-11-22T10:21:29',
    ( '' ),
    ( '' ),
    'SwSTEP 2.0',
    'SolidWorks 2019',
    '' );
FILE_SCHEMA (( 'CONFIG_CONTROL_DESIGN' ));
ENDSEC;

DATA;
#1 = AXIS2_PLACEMENT_3D ( 'NONE', #146, #8, #114 ) ;
#2 = EDGE_LOOP ( 'NONE', ( #115 ) ) ;
#3 = APPROVAL_STATUS ( 'not_yet_approved' ) ;
#4 = PRODUCT_DEFINITION_SHAPE ( 'NONE', 'NONE',  #187 ) ;
#5 = CC_DESIGN_PERSON_AND_ORGANIZATION_ASSIGNMENT ( #45, #103, ( #80 ) ) ;
#6 = DIRECTION ( 'NONE',  ( 3.491481338843133355E-15, -1.224646799147353207E-16, 1.000000000000000000 ) ) ;
#7 = DIRECTION ( 'NONE',  ( 3.491481338843133355E-15, -1.224646799147353207E-16, 1.000000000000000000 ) ) ;
#8 = DIRECTION ( 'NONE',  ( 3.491481338843133355E-15, -1.224646799147353207E-16, 1.000000000000000000 ) ) ;
#9 = FACE_OUTER_BOUND ( 'NONE', #52, .T. ) ;
#10 = ORIENTED_EDGE ( 'NONE', *, *, #63, .F. ) ;
#11 = ADVANCED_BREP_SHAPE_REPRESENTATION ( '326665', ( #27, #24, #48 ), #44 ) ;
#12 = AXIS2_PLACEMENT_3D ( 'NONE', #41, #6, #129 ) ;
#13 = PERSON_AND_ORGANIZATION ( #127, #74 ) ;
#14 = COORDINATED_UNIVERSAL_TIME_OFFSET ( 1, 0, .AHEAD. ) ;
#15 = PERSON_AND_ORGANIZATION_ROLE ( 'design_owner' ) ;
#16 = MECHANICAL_CONTEXT ( 'NONE', #145, 'mechanical' ) ;
#17 = SHAPE_DEFINITION_REPRESENTATION ( #4, #11 ) ;
#18 = CC_DESIGN_PERSON_AND_ORGANIZATION_ASSIGNMENT ( #121, #29, ( #187 ) ) ;
#19 = AXIS2_PLACEMENT_3D ( 'NONE', #116, #181, #42 ) ;
#20 = DIRECTION ( 'NONE',  ( 0.0000000000000000000, -1.000000000000000000, 0.0000000000000000000 ) ) ;
#21 = FACE_BOUND ( 'NONE', #133, .T. ) ;
#22 = DIRECTION ( 'NONE',  ( -3.491481338843133355E-15, 1.224646799147353207E-16, -1.000000000000000000 ) ) ;
#23 = FACE_OUTER_BOUND ( 'NONE', #34, .T. ) ;
#24 = MANIFOLD_SOLID_BREP ( 'Corps-Déplacer/Copier1[2]', #36 ) ;
#25 = PLANE ( 'NONE',  #152 ) ;
#26 = ADVANCED_FACE ( 'NONE', ( #191, #23 ), #84, .T. ) ;
#27 = MANIFOLD_SOLID_BREP ( 'Corps-Déplacer/Copier1[1]', #38 ) ;
#28 = AXIS2_PLACEMENT_3D ( 'NONE', #144, #7, #166 ) ;
#29 = PERSON_AND_ORGANIZATION_ROLE ( 'creator' ) ;
#30 = APPLICATION_PROTOCOL_DEFINITION ( 'international standard', 'config_control_design', 1994, #175 ) ;
#31 = VERTEX_POINT ( 'NONE', #89 ) ;
#32 = CARTESIAN_POINT ( 'NONE',  ( 5.914799457447381976E-33, 0.04999999999999988481, 1.694065894508600678E-18 ) ) ;
#33 = DIRECTION ( 'NONE',  ( 0.0000000000000000000, 0.0000000000000000000, 1.000000000000000000 ) ) ;
#34 = EDGE_LOOP ( 'NONE', ( #50 ) ) ;
#35 = LOCAL_TIME ( 11, 21, 29.00000000000000000, #109 ) ;
#36 = CLOSED_SHELL ( 'NONE', ( #111, #54, #43 ) ) ;
#37 = ADVANCED_FACE ( 'NONE', ( #79 ), #149, .F. ) ;
#38 = CLOSED_SHELL ( 'NONE', ( #37, #135, #26, #126 ) ) ;
#39 = FACE_OUTER_BOUND ( 'NONE', #141, .T. ) ;
#40 = DIRECTION ( 'NONE',  ( -3.491481338843133355E-15, 1.224646799147353207E-16, -1.000000000000000000 ) ) ;
#41 = CARTESIAN_POINT ( 'NONE',  ( 1.605666789689377207E-14, 1.124819836996392248E-32, 4.598812463426765973 ) ) ;
#42 = DIRECTION ( 'NONE',  ( 4.275831445896958607E-31, 1.000000000000000000, 1.224646799147353207E-16 ) ) ;
#43 = ADVANCED_FACE ( 'NONE', ( #39 ), #117, .T. ) ;
#44 =( GEOMETRIC_REPRESENTATION_CONTEXT ( 3 ) GLOBAL_UNCERTAINTY_ASSIGNED_CONTEXT ( ( #158 ) ) GLOBAL_UNIT_ASSIGNED_CONTEXT ( ( #151, #73, #186 ) ) REPRESENTATION_CONTEXT ( 'NONE', 'WORKASPACE' ) );
#45 = PERSON_AND_ORGANIZATION ( #127, #74 ) ;
#46 = AXIS2_PLACEMENT_3D ( 'NONE', #100, #165, #60 ) ;
#47 = EDGE_LOOP ( 'NONE', ( #56 ) ) ;
#48 = AXIS2_PLACEMENT_3D ( 'NONE', #136, #33, #170 ) ;
#49 = DESIGN_CONTEXT ( 'detailed design', #175, 'design' ) ;
#50 = ORIENTED_EDGE ( 'NONE', *, *, #172, .F. ) ;
#51 = EDGE_LOOP ( 'NONE', ( #93 ) ) ;
#52 = EDGE_LOOP ( 'NONE', ( #162 ) ) ;
#53 = DIRECTION ( 'NONE',  ( 4.275831445896959482E-31, 1.000000000000000000, 1.224646799147353207E-16 ) ) ;
#54 = ADVANCED_FACE ( 'NONE', ( #21, #160 ), #55, .T. ) ;
#55 = CONICAL_SURFACE ( 'NONE', #72, 1.500000000000000000, 0.3054326190990009904 ) ;
#56 = ORIENTED_EDGE ( 'NONE', *, *, #76, .T. ) ;
#57 = VERTEX_POINT ( 'NONE', #75 ) ;
#58 = CARTESIAN_POINT ( 'NONE',  ( 1.316288464743861212E-13, 1.499999999999995559, 37.69999999999999574 ) ) ;
#59 = CC_DESIGN_APPROVAL ( #95, ( #187 ) ) ;
#60 = DIRECTION ( 'NONE',  ( 0.0000000000000000000, 1.000000000000000000, 0.0000000000000000000 ) ) ;
#61 = DATE_TIME_ROLE ( 'creation_date' ) ;
#62 = APPROVAL_ROLE ( '' ) ;
#63 = EDGE_CURVE ( 'NONE', #57, #57, #113, .T. ) ;
#64 = PERSON_AND_ORGANIZATION ( #127, #74 ) ;
#65 = PERSON_AND_ORGANIZATION_ROLE ( 'classification_officer' ) ;
#66 = FACE_OUTER_BOUND ( 'NONE', #193, .T. ) ;
#67 = DIRECTION ( 'NONE',  ( -3.491481338843133355E-15, 1.224646799147353207E-16, -1.000000000000000000 ) ) ;
#68 = DIRECTION ( 'NONE',  ( -3.491481338843133355E-15, 1.224646799147353207E-16, -1.000000000000000000 ) ) ;
#69 = FACE_OUTER_BOUND ( 'NONE', #131, .T. ) ;
#70 = CC_DESIGN_PERSON_AND_ORGANIZATION_ASSIGNMENT ( #168, #86, ( #80 ) ) ;
#71 = CARTESIAN_POINT ( 'NONE',  ( 1.326762908760390423E-13, 8.998558695971078593E-33, 38.00000000000000000 ) ) ;
#72 = AXIS2_PLACEMENT_3D ( 'NONE', #182, #82, #20 ) ;
#73 =( NAMED_UNIT ( * ) PLANE_ANGLE_UNIT ( ) SI_UNIT ( $, .RADIAN. ) );
#74 = ORGANIZATION ( 'UNSPECIFIED', 'UNSPECIFIED', '' ) ;
#75 = CARTESIAN_POINT ( 'NONE',  ( 1.605666789689377207E-14, 1.499999999999999334, 4.598812463426765973 ) ) ;
#76 = EDGE_CURVE ( 'NONE', #119, #119, #124, .T. ) ;
#77 = AXIS2_PLACEMENT_3D ( 'NONE', #180, #22, #78 ) ;
#78 = DIRECTION ( 'NONE',  ( 0.0000000000000000000, 1.000000000000000000, 0.0000000000000000000 ) ) ;
#79 = FACE_OUTER_BOUND ( 'NONE', #51, .T. ) ;
#80 = PRODUCT_DEFINITION_FORMATION_WITH_SPECIFIED_SOURCE ( 'ANY', '', #140, .NOT_KNOWN. ) ;
#81 = FACE_OUTER_BOUND ( 'NONE', #2, .T. ) ;
#82 = DIRECTION ( 'NONE',  ( 3.491481338843133355E-15, -1.224646799147353207E-16, 1.000000000000000000 ) ) ;
#83 = DIRECTION ( 'NONE',  ( 4.275831445896958607E-31, 1.000000000000000000, 1.224646799147353207E-16 ) ) ;
#84 = CONICAL_SURFACE ( 'NONE', #96, 1.500000000000000000, 0.7853981633974453924 ) ;
#85 = COORDINATED_UNIVERSAL_TIME_OFFSET ( 1, 0, .AHEAD. ) ;
#86 = PERSON_AND_ORGANIZATION_ROLE ( 'design_supplier' ) ;
#87 = VERTEX_POINT ( 'NONE', #58 ) ;
#88 = EDGE_CURVE ( 'NONE', #31, #31, #143, .T. ) ;
#89 = CARTESIAN_POINT ( 'NONE',  ( 1.326762908760390423E-13, 1.199999999999995515, 38.00000000000000000 ) ) ;
#90 = CALENDAR_DATE ( 2021, 22, 11 ) ;
#91 = APPROVAL_ROLE ( '' ) ;
#92 = SECURITY_CLASSIFICATION ( '', '', #154 ) ;
#93 = ORIENTED_EDGE ( 'NONE', *, *, #63, .T. ) ;
#94 = CC_DESIGN_DATE_AND_TIME_ASSIGNMENT ( #125, #173, ( #92 ) ) ;
#95 = APPROVAL ( #139, 'UNSPECIFIED' ) ;
#96 = AXIS2_PLACEMENT_3D ( 'NONE', #148, #101, #97 ) ;
#97 = DIRECTION ( 'NONE',  ( 0.0000000000000000000, 1.000000000000000000, 0.0000000000000000000 ) ) ;
#98 = DIRECTION ( 'NONE',  ( 0.0000000000000000000, 1.000000000000000000, 0.0000000000000000000 ) ) ;
#99 = ORIENTED_EDGE ( 'NONE', *, *, #88, .T. ) ;
#100 = CARTESIAN_POINT ( 'NONE',  ( 1.316288464743861212E-13, -4.616918432785521081E-15, 37.69999999999999574 ) ) ;
#101 = DIRECTION ( 'NONE',  ( -3.491481338843133355E-15, 1.224646799147353207E-16, -1.000000000000000000 ) ) ;
#102 = VERTEX_POINT ( 'NONE', #32 ) ;
#103 = PERSON_AND_ORGANIZATION_ROLE ( 'creator' ) ;
#104 = CC_DESIGN_DATE_AND_TIME_ASSIGNMENT ( #153, #61, ( #187 ) ) ;
#105 = CARTESIAN_POINT ( 'NONE',  ( 1.605666789689377207E-14, 1.499999999999999334, 4.598812463426765973 ) ) ;
#106 = AXIS2_PLACEMENT_3D ( 'NONE', #128, #194, #53 ) ;
#107 = CALENDAR_DATE ( 2021, 22, 11 ) ;
#108 = ORIENTED_EDGE ( 'NONE', *, *, #76, .F. ) ;
#109 = COORDINATED_UNIVERSAL_TIME_OFFSET ( 1, 0, .AHEAD. ) ;
#110 = LOCAL_TIME ( 11, 21, 29.00000000000000000, #155 ) ;
#111 = ADVANCED_FACE ( 'NONE', ( #81 ), #161, .F. ) ;
#112 = ORIENTED_EDGE ( 'NONE', *, *, #172, .T. ) ;
#113 = CIRCLE ( 'NONE', #195, 1.500000000000000000 ) ;
#114 = DIRECTION ( 'NONE',  ( -4.275831445896958607E-31, -1.000000000000000000, -1.224646799147353207E-16 ) ) ;
#115 = ORIENTED_EDGE ( 'NONE', *, *, #164, .T. ) ;
#116 = CARTESIAN_POINT ( 'NONE',  ( -1.546435777203736302E-32, 5.424166538054615750E-34, -4.429168101228151029E-18 ) ) ;
#117 = PLANE ( 'NONE',  #1 ) ;
#118 = PERSON_AND_ORGANIZATION ( #127, #74 ) ;
#119 = VERTEX_POINT ( 'NONE', #105 ) ;
#120 = LOCAL_TIME ( 11, 21, 29.00000000000000000, #85 ) ;
#121 = PERSON_AND_ORGANIZATION ( #127, #74 ) ;
#122 = APPROVAL_STATUS ( 'not_yet_approved' ) ;
#123 = COORDINATED_UNIVERSAL_TIME_OFFSET ( 1, 0, .AHEAD. ) ;
#124 = CIRCLE ( 'NONE', #77, 1.500000000000000000 ) ;
#125 = DATE_AND_TIME ( #90, #35 ) ;
#126 = ADVANCED_FACE ( 'NONE', ( #9 ), #25, .F. ) ;
#127 = PERSON ( 'UNSPECIFIED', 'UNSPECIFIED', 'UNSPECIFIED', ('UNSPECIFIED'), ('UNSPECIFIED'), ('UNSPECIFIED') ) ;
#128 = CARTESIAN_POINT ( 'NONE',  ( 0.0000000000000000000, 0.0000000000000000000, 0.0000000000000000000 ) ) ;
#129 = DIRECTION ( 'NONE',  ( -4.275831445896958607E-31, -1.000000000000000000, -1.224646799147353207E-16 ) ) ;
#130 = LOCAL_TIME ( 11, 21, 29.00000000000000000, #14 ) ;
#131 = EDGE_LOOP ( 'NONE', ( #112 ) ) ;
#132 = CYLINDRICAL_SURFACE ( 'NONE', #106, 1.500000000000000000 ) ;
#133 = EDGE_LOOP ( 'NONE', ( #178 ) ) ;
#134 = CIRCLE ( 'NONE', #46, 1.500000000000000000 ) ;
#135 = ADVANCED_FACE ( 'NONE', ( #69, #66 ), #132, .T. ) ;
#136 = CARTESIAN_POINT ( 'NONE',  ( 0.0000000000000000000, 0.0000000000000000000, 0.0000000000000000000 ) ) ;
#137 = CALENDAR_DATE ( 2021, 22, 11 ) ;
#138 = APPLICATION_PROTOCOL_DEFINITION ( 'international standard', 'config_control_design', 1994, #145 ) ;
#139 = APPROVAL_STATUS ( 'not_yet_approved' ) ;
#140 = PRODUCT ( '326665', '326665', '', ( #16 ) ) ;
#141 = EDGE_LOOP ( 'NONE', ( #108 ) ) ;
#142 = CC_DESIGN_PERSON_AND_ORGANIZATION_ASSIGNMENT ( #169, #15, ( #140 ) ) ;
#143 = CIRCLE ( 'NONE', #177, 1.200000000000000178 ) ;
#144 = CARTESIAN_POINT ( 'NONE',  ( -7.732178886018681512E-33, 2.712083269027307875E-34, -2.214584050614075514E-18 ) ) ;
#145 = APPLICATION_CONTEXT ( 'configuration controlled 3d designs of mechanical parts and assemblies' ) ;
#146 = CARTESIAN_POINT ( 'NONE',  ( 1.605666789689377207E-14, 1.124819836996392248E-32, 4.598812463426765973 ) ) ;
#147 = APPROVAL_PERSON_ORGANIZATION ( #64, #159, #91 ) ;
#148 = CARTESIAN_POINT ( 'NONE',  ( 1.316288464743861212E-13, -4.616918432785521081E-15, 37.69999999999999574 ) ) ;
#149 = PLANE ( 'NONE',  #12 ) ;
#150 = APPROVAL ( #122, 'UNSPECIFIED' ) ;
#151 =( LENGTH_UNIT ( ) NAMED_UNIT ( * ) SI_UNIT ( .MILLI., .METRE. ) );
#152 = AXIS2_PLACEMENT_3D ( 'NONE', #71, #67, #83 ) ;
#153 = DATE_AND_TIME ( #201, #120 ) ;
#154 = SECURITY_CLASSIFICATION_LEVEL ( 'unclassified' ) ;
#155 = COORDINATED_UNIVERSAL_TIME_OFFSET ( 1, 0, .AHEAD. ) ;
#156 = APPROVAL_PERSON_ORGANIZATION ( #118, #95, #203 ) ;
#157 = EDGE_LOOP ( 'NONE', ( #99 ) ) ;
#158 = UNCERTAINTY_MEASURE_WITH_UNIT (LENGTH_MEASURE( 1.000000000000000082E-05 ), #151, 'distance_accuracy_value', 'NONE');
#159 = APPROVAL ( #3, 'UNSPECIFIED' ) ;
#160 = FACE_OUTER_BOUND ( 'NONE', #47, .T. ) ;
#161 = PLANE ( 'NONE',  #28 ) ;
#162 = ORIENTED_EDGE ( 'NONE', *, *, #88, .F. ) ;
#163 = APPROVAL_PERSON_ORGANIZATION ( #13, #150, #62 ) ;
#164 = EDGE_CURVE ( 'NONE', #102, #102, #171, .T. ) ;
#165 = DIRECTION ( 'NONE',  ( -3.491481338843133355E-15, 1.224646799147353207E-16, -1.000000000000000000 ) ) ;
#166 = DIRECTION ( 'NONE',  ( -4.275831445896958607E-31, -1.000000000000000000, -1.224646799147353207E-16 ) ) ;
#167 = APPROVAL_DATE_TIME ( #183, #95 ) ;
#168 = PERSON_AND_ORGANIZATION ( #127, #74 ) ;
#169 = PERSON_AND_ORGANIZATION ( #127, #74 ) ;
#170 = DIRECTION ( 'NONE',  ( 1.000000000000000000, 0.0000000000000000000, 0.0000000000000000000 ) ) ;
#171 = CIRCLE ( 'NONE', #19, 0.04999999999999988481 ) ;
#172 = EDGE_CURVE ( 'NONE', #87, #87, #134, .T. ) ;
#173 = DATE_TIME_ROLE ( 'classification_date' ) ;
#174 = LOCAL_TIME ( 11, 21, 29.00000000000000000, #123 ) ;
#175 = APPLICATION_CONTEXT ( 'configuration controlled 3d designs of mechanical parts and assemblies' ) ;
#176 = PRODUCT_RELATED_PRODUCT_CATEGORY ( 'detail', '', ( #140 ) ) ;
#177 = AXIS2_PLACEMENT_3D ( 'NONE', #179, #40, #98 ) ;
#178 = ORIENTED_EDGE ( 'NONE', *, *, #164, .F. ) ;
#179 = CARTESIAN_POINT ( 'NONE',  ( 1.326762908760390423E-13, -4.653657836759941941E-15, 38.00000000000000000 ) ) ;
#180 = CARTESIAN_POINT ( 'NONE',  ( 1.605666789689377207E-14, -5.631920963214542358E-16, 4.598812463426765973 ) ) ;
#181 = DIRECTION ( 'NONE',  ( -3.491481338843133355E-15, 1.224646799147353207E-16, -1.000000000000000000 ) ) ;
#182 = CARTESIAN_POINT ( 'NONE',  ( 1.605666789689377207E-14, -5.631920963214542358E-16, 4.598812463426765973 ) ) ;
#183 = DATE_AND_TIME ( #197, #130 ) ;
#184 = APPROVAL_DATE_TIME ( #198, #150 ) ;
#185 = CC_DESIGN_APPROVAL ( #159, ( #92 ) ) ;
#186 =( NAMED_UNIT ( * ) SI_UNIT ( $, .STERADIAN. ) SOLID_ANGLE_UNIT ( ) );
#187 = PRODUCT_DEFINITION ( 'UNKNOWN', '', #80, #49 ) ;
#188 = APPROVAL_DATE_TIME ( #189, #159 ) ;
#189 = DATE_AND_TIME ( #107, #110 ) ;
#190 = CC_DESIGN_SECURITY_CLASSIFICATION ( #92, ( #80 ) ) ;
#191 = FACE_BOUND ( 'NONE', #157, .T. ) ;
#192 = CARTESIAN_POINT ( 'NONE',  ( 1.605666789689377207E-14, -5.631920963214542358E-16, 4.598812463426765973 ) ) ;
#193 = EDGE_LOOP ( 'NONE', ( #10 ) ) ;
#194 = DIRECTION ( 'NONE',  ( -3.491481338843133355E-15, 1.224646799147353207E-16, -1.000000000000000000 ) ) ;
#195 = AXIS2_PLACEMENT_3D ( 'NONE', #192, #68, #196 ) ;
#196 = DIRECTION ( 'NONE',  ( 0.0000000000000000000, 1.000000000000000000, 0.0000000000000000000 ) ) ;
#197 = CALENDAR_DATE ( 2021, 22, 11 ) ;
#198 = DATE_AND_TIME ( #137, #174 ) ;
#199 = PERSON_AND_ORGANIZATION ( #127, #74 ) ;
#200 = CC_DESIGN_APPROVAL ( #150, ( #80 ) ) ;
#201 = CALENDAR_DATE ( 2021, 22, 11 ) ;
#202 = CC_DESIGN_PERSON_AND_ORGANIZATION_ASSIGNMENT ( #199, #65, ( #92 ) ) ;
#203 = APPROVAL_ROLE ( '' ) ;
ENDSEC;
END-ISO-10303-21;
