ISO-10303-21;
HEADER;
FILE_DESCRIPTION (( 'STEP AP203' ),
    '1' );
FILE_NAME ('326664.step',
    '2021-11-22T10:21:29',
    ( '' ),
    ( '' ),
    'SwSTEP 2.0',
    'SolidWorks 2019',
    '' );
FILE_SCHEMA (( 'CONFIG_CONTROL_DESIGN' ));
ENDSEC;

DATA;
#1 = AXIS2_PLACEMENT_3D ( 'NONE', #198, #36, #163 ) ;
#2 = APPLICATION_PROTOCOL_DEFINITION ( 'international standard', 'config_control_design', 1994, #97 ) ;
#3 = CC_DESIGN_APPROVAL ( #27, ( #66 ) ) ;
#4 = EDGE_CURVE ( 'NONE', #130, #130, #199, .T. ) ;
#5 =( LENGTH_UNIT ( ) NAMED_UNIT ( * ) SI_UNIT ( .MILLI., .METRE. ) );
#6 = VERTEX_POINT ( 'NONE', #23 ) ;
#7 = LOCAL_TIME ( 11, 21, 29.00000000000000000, #9 ) ;
#8 = APPROVAL_STATUS ( 'not_yet_approved' ) ;
#9 = COORDINATED_UNIVERSAL_TIME_OFFSET ( 1, 0, .AHEAD. ) ;
#10 = PERSON_AND_ORGANIZATION_ROLE ( 'classification_officer' ) ;
#11 = EDGE_LOOP ( 'NONE', ( #72 ) ) ;
#12 = ORIENTED_EDGE ( 'NONE', *, *, #109, .T. ) ;
#13 = PERSON_AND_ORGANIZATION ( #167, #106 ) ;
#14 = DIRECTION ( 'NONE',  ( 0.0000000000000000000, 1.000000000000000000, 0.0000000000000000000 ) ) ;
#15 = CIRCLE ( 'NONE', #133, 0.04000000000000036859 ) ;
#16 = FACE_OUTER_BOUND ( 'NONE', #11, .T. ) ;
#17 = CARTESIAN_POINT ( 'NONE',  ( 0.0000000000000000000, 0.0000000000000000000, 0.0000000000000000000 ) ) ;
#18 = CC_DESIGN_PERSON_AND_ORGANIZATION_ASSIGNMENT ( #166, #40, ( #81 ) ) ;
#19 = AXIS2_PLACEMENT_3D ( 'NONE', #64, #103, #168 ) ;
#20 = ADVANCED_BREP_SHAPE_REPRESENTATION ( '326664', ( #120, #59, #196 ), #69 ) ;
#21 = FACE_BOUND ( 'NONE', #75, .T. ) ;
#22 = CARTESIAN_POINT ( 'NONE',  ( 1.326762908760390423E-13, 1.199999999999995515, 38.00000000000000000 ) ) ;
#23 = CARTESIAN_POINT ( 'NONE',  ( 1.316288464743861212E-13, 1.499999999999995559, 37.69999999999999574 ) ) ;
#24 = EDGE_CURVE ( 'NONE', #6, #6, #85, .T. ) ;
#25 = APPROVAL_ROLE ( '' ) ;
#26 = PRODUCT_RELATED_PRODUCT_CATEGORY ( 'detail', '', ( #186 ) ) ;
#27 = APPROVAL ( #100, 'UNSPECIFIED' ) ;
#28 = EDGE_LOOP ( 'NONE', ( #33 ) ) ;
#29 = CALENDAR_DATE ( 2021, 22, 11 ) ;
#30 = APPLICATION_CONTEXT ( 'configuration controlled 3d designs of mechanical parts and assemblies' ) ;
#31 = EDGE_LOOP ( 'NONE', ( #154 ) ) ;
#32 = UNCERTAINTY_MEASURE_WITH_UNIT (LENGTH_MEASURE( 1.000000000000000082E-05 ), #5, 'distance_accuracy_value', 'NONE');
#33 = ORIENTED_EDGE ( 'NONE', *, *, #73, .T. ) ;
#34 = CIRCLE ( 'NONE', #37, 1.499999999999999778 ) ;
#35 = CARTESIAN_POINT ( 'NONE',  ( 1.316288464743861212E-13, -4.616918432785521081E-15, 37.69999999999999574 ) ) ;
#36 = DIRECTION ( 'NONE',  ( 3.491481338843133355E-15, -1.224646799147353207E-16, 1.000000000000000000 ) ) ;
#37 = AXIS2_PLACEMENT_3D ( 'NONE', #87, #119, #14 ) ;
#38 = ADVANCED_FACE ( 'NONE', ( #151, #16 ), #122, .T. ) ;
#39 = CALENDAR_DATE ( 2021, 22, 11 ) ;
#40 = PERSON_AND_ORGANIZATION_ROLE ( 'creator' ) ;
#41 = APPROVAL_PERSON_ORGANIZATION ( #60, #27, #165 ) ;
#42 = PERSON_AND_ORGANIZATION ( #167, #106 ) ;
#43 = ADVANCED_FACE ( 'NONE', ( #74 ), #138, .F. ) ;
#44 = APPROVAL_DATE_TIME ( #150, #132 ) ;
#45 = DIRECTION ( 'NONE',  ( 0.0000000000000000000, 1.000000000000000000, 0.0000000000000000000 ) ) ;
#46 = LOCAL_TIME ( 11, 21, 29.00000000000000000, #54 ) ;
#47 = DATE_AND_TIME ( #29, #67 ) ;
#48 = EDGE_LOOP ( 'NONE', ( #104 ) ) ;
#49 = FACE_OUTER_BOUND ( 'NONE', #31, .T. ) ;
#50 = CIRCLE ( 'NONE', #141, 1.200000000000000178 ) ;
#51 = CC_DESIGN_PERSON_AND_ORGANIZATION_ASSIGNMENT ( #42, #10, ( #66 ) ) ;
#52 = CARTESIAN_POINT ( 'NONE',  ( 1.316288464743861212E-13, -4.616918432785521081E-15, 37.69999999999999574 ) ) ;
#53 = PERSON_AND_ORGANIZATION_ROLE ( 'creator' ) ;
#54 = COORDINATED_UNIVERSAL_TIME_OFFSET ( 1, 0, .AHEAD. ) ;
#55 = VERTEX_POINT ( 'NONE', #22 ) ;
#56 = AXIS2_PLACEMENT_3D ( 'NONE', #191, #88, #65 ) ;
#57 = DIRECTION ( 'NONE',  ( 3.491481338843133355E-15, -1.224646799147353207E-16, 1.000000000000000000 ) ) ;
#58 = APPROVAL_ROLE ( '' ) ;
#59 = MANIFOLD_SOLID_BREP ( 'Corps-Déplacer/Copier1[2]', #152 ) ;
#60 = PERSON_AND_ORGANIZATION ( #167, #106 ) ;
#61 = CARTESIAN_POINT ( 'NONE',  ( -1.710332578358799306E-32, 5.999039130647486196E-34, -4.898587196589458219E-18 ) ) ;
#62 = FACE_OUTER_BOUND ( 'NONE', #28, .T. ) ;
#63 = DIRECTION ( 'NONE',  ( -3.491481338843133355E-15, 1.224646799147353207E-16, -1.000000000000000000 ) ) ;
#64 = CARTESIAN_POINT ( 'NONE',  ( 1.616740353756199947E-14, 1.124819836996392111E-32, 4.630528411450397286 ) ) ;
#65 = DIRECTION ( 'NONE',  ( 0.0000000000000000000, 1.000000000000000000, 0.0000000000000000000 ) ) ;
#66 = SECURITY_CLASSIFICATION ( '', '', #101 ) ;
#67 = LOCAL_TIME ( 11, 21, 29.00000000000000000, #182 ) ;
#68 =( NAMED_UNIT ( * ) SI_UNIT ( $, .STERADIAN. ) SOLID_ANGLE_UNIT ( ) );
#69 =( GEOMETRIC_REPRESENTATION_CONTEXT ( 3 ) GLOBAL_UNCERTAINTY_ASSIGNED_CONTEXT ( ( #32 ) ) GLOBAL_UNIT_ASSIGNED_CONTEXT ( ( #5, #96, #68 ) ) REPRESENTATION_CONTEXT ( 'NONE', 'WORKASPACE' ) );
#70 = SHAPE_DEFINITION_REPRESENTATION ( #79, #20 ) ;
#71 = DATE_AND_TIME ( #131, #98 ) ;
#72 = ORIENTED_EDGE ( 'NONE', *, *, #24, .F. ) ;
#73 = EDGE_CURVE ( 'NONE', #159, #159, #15, .T. ) ;
#74 = FACE_OUTER_BOUND ( 'NONE', #116, .T. ) ;
#75 = EDGE_LOOP ( 'NONE', ( #123 ) ) ;
#76 = DIRECTION ( 'NONE',  ( -3.491481338843133355E-15, 1.224646799147353207E-16, -1.000000000000000000 ) ) ;
#77 = CC_DESIGN_DATE_AND_TIME_ASSIGNMENT ( #178, #94, ( #156 ) ) ;
#78 = DIRECTION ( 'NONE',  ( -3.491481338843133355E-15, 1.224646799147353207E-16, -1.000000000000000000 ) ) ;
#79 = PRODUCT_DEFINITION_SHAPE ( 'NONE', 'NONE',  #156 ) ;
#80 = VERTEX_POINT ( 'NONE', #82 ) ;
#81 = PRODUCT_DEFINITION_FORMATION_WITH_SPECIFIED_SOURCE ( 'ANY', '', #186, .NOT_KNOWN. ) ;
#82 = CARTESIAN_POINT ( 'NONE',  ( 1.616740353756199947E-14, 1.499999999999999112, 4.630528411450397286 ) ) ;
#83 = PERSON_AND_ORGANIZATION ( #167, #106 ) ;
#84 = PERSON_AND_ORGANIZATION_ROLE ( 'design_owner' ) ;
#85 = CIRCLE ( 'NONE', #111, 1.500000000000000000 ) ;
#86 = DIRECTION ( 'NONE',  ( 0.0000000000000000000, 1.000000000000000000, 0.0000000000000000000 ) ) ;
#87 = CARTESIAN_POINT ( 'NONE',  ( 1.616740353756199947E-14, -5.670761797443607828E-16, 4.630528411450397286 ) ) ;
#88 = DIRECTION ( 'NONE',  ( -3.491481338843133355E-15, 1.224646799147353207E-16, -1.000000000000000000 ) ) ;
#89 = DIRECTION ( 'NONE',  ( 0.0000000000000000000, 1.000000000000000000, 0.0000000000000000000 ) ) ;
#90 = DIRECTION ( 'NONE',  ( -3.491481338843133355E-15, 1.224646799147353207E-16, -1.000000000000000000 ) ) ;
#91 = APPROVAL_PERSON_ORGANIZATION ( #161, #132, #25 ) ;
#92 = PLANE ( 'NONE',  #148 ) ;
#93 = EDGE_CURVE ( 'NONE', #80, #80, #34, .T. ) ;
#94 = DATE_TIME_ROLE ( 'creation_date' ) ;
#95 = DIRECTION ( 'NONE',  ( -4.275831445896958607E-31, -1.000000000000000000, -1.224646799147353207E-16 ) ) ;
#96 =( NAMED_UNIT ( * ) PLANE_ANGLE_UNIT ( ) SI_UNIT ( $, .RADIAN. ) );
#97 = APPLICATION_CONTEXT ( 'configuration controlled 3d designs of mechanical parts and assemblies' ) ;
#98 = LOCAL_TIME ( 11, 21, 29.00000000000000000, #134 ) ;
#99 = DATE_TIME_ROLE ( 'classification_date' ) ;
#100 = APPROVAL_STATUS ( 'not_yet_approved' ) ;
#101 = SECURITY_CLASSIFICATION_LEVEL ( 'unclassified' ) ;
#102 = CC_DESIGN_APPROVAL ( #162, ( #156 ) ) ;
#103 = DIRECTION ( 'NONE',  ( 3.491481338843133355E-15, -1.224646799147353207E-16, 1.000000000000000000 ) ) ;
#104 = ORIENTED_EDGE ( 'NONE', *, *, #93, .T. ) ;
#105 = EDGE_LOOP ( 'NONE', ( #107 ) ) ;
#106 = ORGANIZATION ( 'UNSPECIFIED', 'UNSPECIFIED', '' ) ;
#107 = ORIENTED_EDGE ( 'NONE', *, *, #24, .T. ) ;
#108 = DIRECTION ( 'NONE',  ( 1.000000000000000000, 0.0000000000000000000, 0.0000000000000000000 ) ) ;
#109 = EDGE_CURVE ( 'NONE', #55, #55, #50, .T. ) ;
#110 = CALENDAR_DATE ( 2021, 22, 11 ) ;
#111 = AXIS2_PLACEMENT_3D ( 'NONE', #52, #203, #89 ) ;
#112 = PERSON_AND_ORGANIZATION ( #167, #106 ) ;
#113 = CARTESIAN_POINT ( 'NONE',  ( 1.616740353756199947E-14, 1.499999999999999112, 4.630528411450397286 ) ) ;
#114 = CC_DESIGN_SECURITY_CLASSIFICATION ( #66, ( #81 ) ) ;
#115 = APPROVAL_STATUS ( 'not_yet_approved' ) ;
#116 = EDGE_LOOP ( 'NONE', ( #137 ) ) ;
#117 = CC_DESIGN_APPROVAL ( #132, ( #81 ) ) ;
#118 = DIRECTION ( 'NONE',  ( -3.491481338843133355E-15, 1.224646799147353207E-16, -1.000000000000000000 ) ) ;
#119 = DIRECTION ( 'NONE',  ( -3.491481338843133355E-15, 1.224646799147353207E-16, -1.000000000000000000 ) ) ;
#120 = MANIFOLD_SOLID_BREP ( 'Corps-Déplacer/Copier1[1]', #124 ) ;
#121 = ORIENTED_EDGE ( 'NONE', *, *, #93, .F. ) ;
#122 = CONICAL_SURFACE ( 'NONE', #179, 1.500000000000000000, 0.7853981633974453924 ) ;
#123 = ORIENTED_EDGE ( 'NONE', *, *, #73, .F. ) ;
#124 = CLOSED_SHELL ( 'NONE', ( #193, #173, #38, #43 ) ) ;
#125 = LOCAL_TIME ( 11, 21, 29.00000000000000000, #180 ) ;
#126 = DATE_AND_TIME ( #39, #125 ) ;
#127 = FACE_OUTER_BOUND ( 'NONE', #201, .T. ) ;
#128 = DIRECTION ( 'NONE',  ( 3.491481338843133355E-15, -1.224646799147353207E-16, 1.000000000000000000 ) ) ;
#129 = CARTESIAN_POINT ( 'NONE',  ( 0.0000000000000000000, 0.0000000000000000000, 0.0000000000000000000 ) ) ;
#130 = VERTEX_POINT ( 'NONE', #113 ) ;
#131 = CALENDAR_DATE ( 2021, 22, 11 ) ;
#132 = APPROVAL ( #115, 'UNSPECIFIED' ) ;
#133 = AXIS2_PLACEMENT_3D ( 'NONE', #61, #90, #155 ) ;
#134 = COORDINATED_UNIVERSAL_TIME_OFFSET ( 1, 0, .AHEAD. ) ;
#135 = APPROVAL_DATE_TIME ( #47, #27 ) ;
#136 = FACE_OUTER_BOUND ( 'NONE', #105, .T. ) ;
#137 = ORIENTED_EDGE ( 'NONE', *, *, #109, .F. ) ;
#138 = PLANE ( 'NONE',  #158 ) ;
#139 = DIRECTION ( 'NONE',  ( 4.275831445896959482E-31, 1.000000000000000000, 1.224646799147353207E-16 ) ) ;
#140 = AXIS2_PLACEMENT_3D ( 'NONE', #17, #78, #139 ) ;
#141 = AXIS2_PLACEMENT_3D ( 'NONE', #183, #63, #45 ) ;
#142 = CARTESIAN_POINT ( 'NONE',  ( 1.616740353756199947E-14, 1.124819836996392111E-32, 4.630528411450397286 ) ) ;
#143 = DIRECTION ( 'NONE',  ( 0.0000000000000000000, 0.0000000000000000000, 1.000000000000000000 ) ) ;
#144 = DIRECTION ( 'NONE',  ( -4.275831445896958607E-31, -1.000000000000000000, -1.224646799147353207E-16 ) ) ;
#145 = CARTESIAN_POINT ( 'NONE',  ( -8.551662891793996529E-33, 2.999519565323743098E-34, -2.449293598294729110E-18 ) ) ;
#146 = CALENDAR_DATE ( 2021, 22, 11 ) ;
#147 = ADVANCED_FACE ( 'NONE', ( #49 ), #188, .T. ) ;
#148 = AXIS2_PLACEMENT_3D ( 'NONE', #142, #57, #144 ) ;
#149 = DIRECTION ( 'NONE',  ( 4.275831445896958607E-31, 1.000000000000000000, 1.224646799147353207E-16 ) ) ;
#150 = DATE_AND_TIME ( #146, #7 ) ;
#151 = FACE_BOUND ( 'NONE', #170, .T. ) ;
#152 = CLOSED_SHELL ( 'NONE', ( #174, #189, #147 ) ) ;
#153 = CONICAL_SURFACE ( 'NONE', #1, 1.499999999999999778, 0.3054326190990009349 ) ;
#154 = ORIENTED_EDGE ( 'NONE', *, *, #4, .F. ) ;
#155 = DIRECTION ( 'NONE',  ( 4.275831445896958607E-31, 1.000000000000000000, 1.224646799147353207E-16 ) ) ;
#156 = PRODUCT_DEFINITION ( 'UNKNOWN', '', #81, #172 ) ;
#157 = CC_DESIGN_DATE_AND_TIME_ASSIGNMENT ( #71, #99, ( #66 ) ) ;
#158 = AXIS2_PLACEMENT_3D ( 'NONE', #190, #118, #149 ) ;
#159 = VERTEX_POINT ( 'NONE', #197 ) ;
#160 = FACE_OUTER_BOUND ( 'NONE', #48, .T. ) ;
#161 = PERSON_AND_ORGANIZATION ( #167, #106 ) ;
#162 = APPROVAL ( #8, 'UNSPECIFIED' ) ;
#163 = DIRECTION ( 'NONE',  ( 0.0000000000000000000, -1.000000000000000000, 0.0000000000000000000 ) ) ;
#164 = MECHANICAL_CONTEXT ( 'NONE', #97, 'mechanical' ) ;
#165 = APPROVAL_ROLE ( '' ) ;
#166 = PERSON_AND_ORGANIZATION ( #167, #106 ) ;
#167 = PERSON ( 'UNSPECIFIED', 'UNSPECIFIED', 'UNSPECIFIED', ('UNSPECIFIED'), ('UNSPECIFIED'), ('UNSPECIFIED') ) ;
#168 = DIRECTION ( 'NONE',  ( -4.275831445896958607E-31, -1.000000000000000000, -1.224646799147353207E-16 ) ) ;
#169 = PERSON_AND_ORGANIZATION_ROLE ( 'design_supplier' ) ;
#170 = EDGE_LOOP ( 'NONE', ( #12 ) ) ;
#171 = ORIENTED_EDGE ( 'NONE', *, *, #4, .T. ) ;
#172 = DESIGN_CONTEXT ( 'detailed design', #30, 'design' ) ;
#173 = ADVANCED_FACE ( 'NONE', ( #136, #202 ), #175, .T. ) ;
#174 = ADVANCED_FACE ( 'NONE', ( #62 ), #187, .F. ) ;
#175 = CYLINDRICAL_SURFACE ( 'NONE', #140, 1.500000000000000000 ) ;
#176 = EDGE_LOOP ( 'NONE', ( #121 ) ) ;
#177 = APPLICATION_PROTOCOL_DEFINITION ( 'international standard', 'config_control_design', 1994, #30 ) ;
#178 = DATE_AND_TIME ( #110, #46 ) ;
#179 = AXIS2_PLACEMENT_3D ( 'NONE', #35, #76, #86 ) ;
#180 = COORDINATED_UNIVERSAL_TIME_OFFSET ( 1, 0, .AHEAD. ) ;
#181 = APPROVAL_PERSON_ORGANIZATION ( #112, #162, #58 ) ;
#182 = COORDINATED_UNIVERSAL_TIME_OFFSET ( 1, 0, .AHEAD. ) ;
#183 = CARTESIAN_POINT ( 'NONE',  ( 1.326762908760390423E-13, -4.653657836759941941E-15, 38.00000000000000000 ) ) ;
#184 = CC_DESIGN_PERSON_AND_ORGANIZATION_ASSIGNMENT ( #13, #169, ( #81 ) ) ;
#185 = AXIS2_PLACEMENT_3D ( 'NONE', #145, #128, #95 ) ;
#186 = PRODUCT ( '326664', '326664', '', ( #164 ) ) ;
#187 = PLANE ( 'NONE',  #185 ) ;
#188 = PLANE ( 'NONE',  #19 ) ;
#189 = ADVANCED_FACE ( 'NONE', ( #21, #127 ), #153, .T. ) ;
#190 = CARTESIAN_POINT ( 'NONE',  ( 1.326762908760390423E-13, 8.998558695971078593E-33, 38.00000000000000000 ) ) ;
#191 = CARTESIAN_POINT ( 'NONE',  ( 1.616740353756199947E-14, -5.670761797443607828E-16, 4.630528411450397286 ) ) ;
#192 = APPROVAL_DATE_TIME ( #126, #162 ) ;
#193 = ADVANCED_FACE ( 'NONE', ( #160 ), #92, .F. ) ;
#194 = PERSON_AND_ORGANIZATION ( #167, #106 ) ;
#195 = CC_DESIGN_PERSON_AND_ORGANIZATION_ASSIGNMENT ( #194, #53, ( #156 ) ) ;
#196 = AXIS2_PLACEMENT_3D ( 'NONE', #129, #143, #108 ) ;
#197 = CARTESIAN_POINT ( 'NONE',  ( 0.0000000000000000000, 0.04000000000000036859, 0.0000000000000000000 ) ) ;
#198 = CARTESIAN_POINT ( 'NONE',  ( 1.616740353756199947E-14, -5.670761797443607828E-16, 4.630528411450397286 ) ) ;
#199 = CIRCLE ( 'NONE', #56, 1.499999999999999778 ) ;
#200 = CC_DESIGN_PERSON_AND_ORGANIZATION_ASSIGNMENT ( #83, #84, ( #186 ) ) ;
#201 = EDGE_LOOP ( 'NONE', ( #171 ) ) ;
#202 = FACE_OUTER_BOUND ( 'NONE', #176, .T. ) ;
#203 = DIRECTION ( 'NONE',  ( -3.491481338843133355E-15, 1.224646799147353207E-16, -1.000000000000000000 ) ) ;
ENDSEC;
END-ISO-10303-21;
