ISO-10303-21;
HEADER;
FILE_DESCRIPTION (( 'STEP AP203' ),
    '1' );
FILE_NAME ('326663.step',
    '2021-11-22T10:21:28',
    ( '' ),
    ( '' ),
    'SwSTEP 2.0',
    'SolidWorks 2019',
    '' );
FILE_SCHEMA (( 'CONFIG_CONTROL_DESIGN' ));
ENDSEC;

DATA;
#1 = APPROVAL_PERSON_ORGANIZATION ( #190, #161, #89 ) ;
#2 = FACE_OUTER_BOUND ( 'NONE', #10, .T. ) ;
#3 = AXIS2_PLACEMENT_3D ( 'NONE', #72, #4, #167 ) ;
#4 = DIRECTION ( 'NONE',  ( -3.491481338843133355E-15, 1.224646799147353207E-16, -1.000000000000000000 ) ) ;
#5 = FACE_OUTER_BOUND ( 'NONE', #182, .T. ) ;
#6 = CARTESIAN_POINT ( 'NONE',  ( 1.316288464743861212E-13, -4.616918432785521081E-15, 37.69999999999999574 ) ) ;
#7 = SECURITY_CLASSIFICATION ( '', '', #174 ) ;
#8 = DIRECTION ( 'NONE',  ( -4.275831445896958607E-31, -1.000000000000000000, -1.224646799147353207E-16 ) ) ;
#9 = CC_DESIGN_PERSON_AND_ORGANIZATION_ASSIGNMENT ( #90, #172, ( #111 ) ) ;
#10 = EDGE_LOOP ( 'NONE', ( #40 ) ) ;
#11 = CALENDAR_DATE ( 2021, 22, 11 ) ;
#12 = CARTESIAN_POINT ( 'NONE',  ( -1.496541006063942037E-32, 5.249159239316524549E-34, -4.286263797015754468E-18 ) ) ;
#13 = APPROVAL_STATUS ( 'not_yet_approved' ) ;
#14 = APPROVAL_STATUS ( 'not_yet_approved' ) ;
#15 = CIRCLE ( 'NONE', #105, 1.200000000000000178 ) ;
#16 = CC_DESIGN_DATE_AND_TIME_ASSIGNMENT ( #157, #62, ( #7 ) ) ;
#17 = DIRECTION ( 'NONE',  ( 0.0000000000000000000, 1.000000000000000000, 0.0000000000000000000 ) ) ;
#18 = UNCERTAINTY_MEASURE_WITH_UNIT (LENGTH_MEASURE( 1.000000000000000082E-05 ), #168, 'distance_accuracy_value', 'NONE');
#19 = ADVANCED_FACE ( 'NONE', ( #135, #166 ), #144, .T. ) ;
#20 = ORGANIZATION ( 'UNSPECIFIED', 'UNSPECIFIED', '' ) ;
#21 = DIRECTION ( 'NONE',  ( -4.275831445896958607E-31, -1.000000000000000000, -1.224646799147353207E-16 ) ) ;
#22 = APPLICATION_CONTEXT ( 'configuration controlled 3d designs of mechanical parts and assemblies' ) ;
#23 = CARTESIAN_POINT ( 'NONE',  ( 1.326762908760390423E-13, 1.199999999999995515, 38.00000000000000000 ) ) ;
#24 = EDGE_CURVE ( 'NONE', #38, #38, #123, .T. ) ;
#25 = DIRECTION ( 'NONE',  ( -3.491481338843133355E-15, 1.224646799147353207E-16, -1.000000000000000000 ) ) ;
#26 = PRODUCT_DEFINITION ( 'UNKNOWN', '', #91, #110 ) ;
#27 = VERTEX_POINT ( 'NONE', #53 ) ;
#28 = EDGE_LOOP ( 'NONE', ( #154 ) ) ;
#29 = SHAPE_DEFINITION_REPRESENTATION ( #47, #94 ) ;
#30 = PERSON_AND_ORGANIZATION ( #177, #20 ) ;
#31 = AXIS2_PLACEMENT_3D ( 'NONE', #181, #193, #197 ) ;
#32 = DATE_AND_TIME ( #11, #171 ) ;
#33 = CC_DESIGN_PERSON_AND_ORGANIZATION_ASSIGNMENT ( #108, #142, ( #26 ) ) ;
#34 = AXIS2_PLACEMENT_3D ( 'NONE', #117, #41, #51 ) ;
#35 = APPROVAL_PERSON_ORGANIZATION ( #113, #112, #109 ) ;
#36 = CARTESIAN_POINT ( 'NONE',  ( 1.622277135789612264E-14, 1.499999999999999334, 4.646386385462214719 ) ) ;
#37 = EDGE_LOOP ( 'NONE', ( #101 ) ) ;
#38 = VERTEX_POINT ( 'NONE', #134 ) ;
#39 = PLANE ( 'NONE',  #31 ) ;
#40 = ORIENTED_EDGE ( 'NONE', *, *, #67, .F. ) ;
#41 = DIRECTION ( 'NONE',  ( -3.491481338843133355E-15, 1.224646799147353207E-16, -1.000000000000000000 ) ) ;
#42 = AXIS2_PLACEMENT_3D ( 'NONE', #12, #76, #140 ) ;
#43 = EDGE_LOOP ( 'NONE', ( #98 ) ) ;
#44 = CALENDAR_DATE ( 2021, 22, 11 ) ;
#45 = CC_DESIGN_APPROVAL ( #96, ( #7 ) ) ;
#46 = ADVANCED_FACE ( 'NONE', ( #61, #201 ), #156, .T. ) ;
#47 = PRODUCT_DEFINITION_SHAPE ( 'NONE', 'NONE',  #26 ) ;
#48 = CALENDAR_DATE ( 2021, 22, 11 ) ;
#49 = MANIFOLD_SOLID_BREP ( 'Corps-Déplacer/Copier1[2]', #130 ) ;
#50 = CIRCLE ( 'NONE', #118, 1.500000000000000000 ) ;
#51 = DIRECTION ( 'NONE',  ( 4.275831445896958607E-31, 1.000000000000000000, 1.224646799147353207E-16 ) ) ;
#52 = EDGE_LOOP ( 'NONE', ( #116 ) ) ;
#53 = CARTESIAN_POINT ( 'NONE',  ( 1.622277135789612264E-14, 1.499999999999999334, 4.646386385462214719 ) ) ;
#54 = EDGE_LOOP ( 'NONE', ( #84 ) ) ;
#55 = AXIS2_PLACEMENT_3D ( 'NONE', #69, #25, #17 ) ;
#56 = PLANE ( 'NONE',  #34 ) ;
#57 = FACE_OUTER_BOUND ( 'NONE', #169, .T. ) ;
#58 = AXIS2_PLACEMENT_3D ( 'NONE', #196, #103, #86 ) ;
#59 = DATE_TIME_ROLE ( 'creation_date' ) ;
#60 = ADVANCED_FACE ( 'NONE', ( #5 ), #73, .F. ) ;
#61 = FACE_OUTER_BOUND ( 'NONE', #107, .T. ) ;
#62 = DATE_TIME_ROLE ( 'classification_date' ) ;
#63 = CC_DESIGN_DATE_AND_TIME_ASSIGNMENT ( #185, #59, ( #26 ) ) ;
#64 = MECHANICAL_CONTEXT ( 'NONE', #22, 'mechanical' ) ;
#65 = AXIS2_PLACEMENT_3D ( 'NONE', #83, #104, #21 ) ;
#66 = CIRCLE ( 'NONE', #3, 1.500000000000000000 ) ;
#67 = EDGE_CURVE ( 'NONE', #102, #102, #50, .T. ) ;
#68 = CLOSED_SHELL ( 'NONE', ( #143, #46, #114, #146 ) ) ;
#69 = CARTESIAN_POINT ( 'NONE',  ( 1.316288464743861212E-13, -4.616918432785521081E-15, 37.69999999999999574 ) ) ;
#70 = ORIENTED_EDGE ( 'NONE', *, *, #74, .T. ) ;
#71 =( NAMED_UNIT ( * ) PLANE_ANGLE_UNIT ( ) SI_UNIT ( $, .RADIAN. ) );
#72 = CARTESIAN_POINT ( 'NONE',  ( 1.622277135789612264E-14, -5.690182214558141548E-16, 4.646386385462214719 ) ) ;
#73 = PLANE ( 'NONE',  #82 ) ;
#74 = EDGE_CURVE ( 'NONE', #192, #192, #95, .T. ) ;
#75 = PERSON_AND_ORGANIZATION_ROLE ( 'creator' ) ;
#76 = DIRECTION ( 'NONE',  ( -3.491481338843133355E-15, 1.224646799147353207E-16, -1.000000000000000000 ) ) ;
#77 = CALENDAR_DATE ( 2021, 22, 11 ) ;
#78 = CC_DESIGN_PERSON_AND_ORGANIZATION_ASSIGNMENT ( #30, #138, ( #91 ) ) ;
#79 = PERSON_AND_ORGANIZATION ( #177, #20 ) ;
#80 = CC_DESIGN_APPROVAL ( #161, ( #26 ) ) ;
#81 = FACE_OUTER_BOUND ( 'NONE', #54, .T. ) ;
#82 = AXIS2_PLACEMENT_3D ( 'NONE', #164, #119, #8 ) ;
#83 = CARTESIAN_POINT ( 'NONE',  ( 1.622277135789612264E-14, 1.124819836996392248E-32, 4.646386385462214719 ) ) ;
#84 = ORIENTED_EDGE ( 'NONE', *, *, #74, .F. ) ;
#85 = PLANE ( 'NONE',  #65 ) ;
#86 = DIRECTION ( 'NONE',  ( 0.0000000000000000000, -1.000000000000000000, 0.0000000000000000000 ) ) ;
#87 = AXIS2_PLACEMENT_3D ( 'NONE', #6, #180, #149 ) ;
#88 = ORIENTED_EDGE ( 'NONE', *, *, #160, .F. ) ;
#89 = APPROVAL_ROLE ( '' ) ;
#90 = PERSON_AND_ORGANIZATION ( #177, #20 ) ;
#91 = PRODUCT_DEFINITION_FORMATION_WITH_SPECIFIED_SOURCE ( 'ANY', '', #111, .NOT_KNOWN. ) ;
#92 = DATE_AND_TIME ( #44, #189 ) ;
#93 = CALENDAR_DATE ( 2021, 22, 11 ) ;
#94 = ADVANCED_BREP_SHAPE_REPRESENTATION ( '326663', ( #188, #49, #179 ), #145 ) ;
#95 = CIRCLE ( 'NONE', #87, 1.500000000000000000 ) ;
#96 = APPROVAL ( #173, 'UNSPECIFIED' ) ;
#97 = VERTEX_POINT ( 'NONE', #23 ) ;
#98 = ORIENTED_EDGE ( 'NONE', *, *, #160, .T. ) ;
#99 = CC_DESIGN_SECURITY_CLASSIFICATION ( #7, ( #91 ) ) ;
#100 = CARTESIAN_POINT ( 'NONE',  ( 1.326762908760390423E-13, -4.653657836759941941E-15, 38.00000000000000000 ) ) ;
#101 = ORIENTED_EDGE ( 'NONE', *, *, #67, .T. ) ;
#102 = VERTEX_POINT ( 'NONE', #36 ) ;
#103 = DIRECTION ( 'NONE',  ( 3.491481338843133355E-15, -1.224646799147353207E-16, 1.000000000000000000 ) ) ;
#104 = DIRECTION ( 'NONE',  ( 3.491481338843133355E-15, -1.224646799147353207E-16, 1.000000000000000000 ) ) ;
#105 = AXIS2_PLACEMENT_3D ( 'NONE', #100, #170, #115 ) ;
#106 = DATE_AND_TIME ( #48, #141 ) ;
#107 = EDGE_LOOP ( 'NONE', ( #70 ) ) ;
#108 = PERSON_AND_ORGANIZATION ( #177, #20 ) ;
#109 = APPROVAL_ROLE ( '' ) ;
#110 = DESIGN_CONTEXT ( 'detailed design', #195, 'design' ) ;
#111 = PRODUCT ( '326663', '326663', '', ( #64 ) ) ;
#112 = APPROVAL ( #14, 'UNSPECIFIED' ) ;
#113 = PERSON_AND_ORGANIZATION ( #177, #20 ) ;
#114 = ADVANCED_FACE ( 'NONE', ( #147, #81 ), #152, .T. ) ;
#115 = DIRECTION ( 'NONE',  ( 0.0000000000000000000, 1.000000000000000000, 0.0000000000000000000 ) ) ;
#116 = ORIENTED_EDGE ( 'NONE', *, *, #120, .F. ) ;
#117 = CARTESIAN_POINT ( 'NONE',  ( 1.326762908760390423E-13, 8.998558695971078593E-33, 38.00000000000000000 ) ) ;
#118 = AXIS2_PLACEMENT_3D ( 'NONE', #137, #162, #148 ) ;
#119 = DIRECTION ( 'NONE',  ( 3.491481338843133355E-15, -1.224646799147353207E-16, 1.000000000000000000 ) ) ;
#120 = EDGE_CURVE ( 'NONE', #27, #27, #66, .T. ) ;
#121 = DIRECTION ( 'NONE',  ( -3.491481338843133355E-15, 1.224646799147353207E-16, -1.000000000000000000 ) ) ;
#122 = PERSON_AND_ORGANIZATION ( #177, #20 ) ;
#123 = CIRCLE ( 'NONE', #42, 0.03500000000000015599 ) ;
#124 = APPROVAL_ROLE ( '' ) ;
#125 = APPLICATION_PROTOCOL_DEFINITION ( 'international standard', 'config_control_design', 1994, #195 ) ;
#126 = APPROVAL_DATE_TIME ( #106, #112 ) ;
#127 = CC_DESIGN_PERSON_AND_ORGANIZATION_ASSIGNMENT ( #122, #75, ( #91 ) ) ;
#128 = APPLICATION_PROTOCOL_DEFINITION ( 'international standard', 'config_control_design', 1994, #22 ) ;
#129 = DIRECTION ( 'NONE',  ( 4.275831445896959482E-31, 1.000000000000000000, 1.224646799147353207E-16 ) ) ;
#130 = CLOSED_SHELL ( 'NONE', ( #60, #19, #150 ) ) ;
#131 = FACE_OUTER_BOUND ( 'NONE', #151, .T. ) ;
#132 = ORIENTED_EDGE ( 'NONE', *, *, #120, .T. ) ;
#133 =( NAMED_UNIT ( * ) SI_UNIT ( $, .STERADIAN. ) SOLID_ANGLE_UNIT ( ) );
#134 = CARTESIAN_POINT ( 'NONE',  ( 0.0000000000000000000, 0.03500000000000015599, 0.0000000000000000000 ) ) ;
#135 = FACE_BOUND ( 'NONE', #28, .T. ) ;
#136 = LOCAL_TIME ( 11, 21, 28.00000000000000000, #199 ) ;
#137 = CARTESIAN_POINT ( 'NONE',  ( 1.622277135789612264E-14, -5.690182214558141548E-16, 4.646386385462214719 ) ) ;
#138 = PERSON_AND_ORGANIZATION_ROLE ( 'design_supplier' ) ;
#139 = PERSON_AND_ORGANIZATION_ROLE ( 'classification_officer' ) ;
#140 = DIRECTION ( 'NONE',  ( 4.275831445896958607E-31, 1.000000000000000000, 1.224646799147352961E-16 ) ) ;
#141 = LOCAL_TIME ( 11, 21, 28.00000000000000000, #155 ) ;
#142 = PERSON_AND_ORGANIZATION_ROLE ( 'creator' ) ;
#143 = ADVANCED_FACE ( 'NONE', ( #131 ), #39, .F. ) ;
#144 = CONICAL_SURFACE ( 'NONE', #58, 1.500000000000000000, 0.3054326190990009904 ) ;
#145 =( GEOMETRIC_REPRESENTATION_CONTEXT ( 3 ) GLOBAL_UNCERTAINTY_ASSIGNED_CONTEXT ( ( #18 ) ) GLOBAL_UNIT_ASSIGNED_CONTEXT ( ( #168, #71, #133 ) ) REPRESENTATION_CONTEXT ( 'NONE', 'WORKASPACE' ) );
#146 = ADVANCED_FACE ( 'NONE', ( #57 ), #56, .F. ) ;
#147 = FACE_BOUND ( 'NONE', #43, .T. ) ;
#148 = DIRECTION ( 'NONE',  ( 0.0000000000000000000, 1.000000000000000000, 0.0000000000000000000 ) ) ;
#149 = DIRECTION ( 'NONE',  ( 0.0000000000000000000, 1.000000000000000000, 0.0000000000000000000 ) ) ;
#150 = ADVANCED_FACE ( 'NONE', ( #2 ), #85, .T. ) ;
#151 = EDGE_LOOP ( 'NONE', ( #132 ) ) ;
#152 = CONICAL_SURFACE ( 'NONE', #55, 1.500000000000000000, 0.7853981633974453924 ) ;
#153 = COORDINATED_UNIVERSAL_TIME_OFFSET ( 1, 0, .AHEAD. ) ;
#154 = ORIENTED_EDGE ( 'NONE', *, *, #24, .F. ) ;
#155 = COORDINATED_UNIVERSAL_TIME_OFFSET ( 1, 0, .AHEAD. ) ;
#156 = CYLINDRICAL_SURFACE ( 'NONE', #184, 1.500000000000000000 ) ;
#157 = DATE_AND_TIME ( #77, #136 ) ;
#158 = PERSON_AND_ORGANIZATION ( #177, #20 ) ;
#159 = CARTESIAN_POINT ( 'NONE',  ( 0.0000000000000000000, 0.0000000000000000000, 0.0000000000000000000 ) ) ;
#160 = EDGE_CURVE ( 'NONE', #97, #97, #15, .T. ) ;
#161 = APPROVAL ( #13, 'UNSPECIFIED' ) ;
#162 = DIRECTION ( 'NONE',  ( -3.491481338843133355E-15, 1.224646799147353207E-16, -1.000000000000000000 ) ) ;
#163 = APPROVAL_PERSON_ORGANIZATION ( #158, #96, #124 ) ;
#164 = CARTESIAN_POINT ( 'NONE',  ( -7.482705030319710185E-33, 2.624579619658262275E-34, -2.143131898507877234E-18 ) ) ;
#165 = CC_DESIGN_APPROVAL ( #112, ( #91 ) ) ;
#166 = FACE_OUTER_BOUND ( 'NONE', #37, .T. ) ;
#167 = DIRECTION ( 'NONE',  ( 0.0000000000000000000, 1.000000000000000000, 0.0000000000000000000 ) ) ;
#168 =( LENGTH_UNIT ( ) NAMED_UNIT ( * ) SI_UNIT ( .MILLI., .METRE. ) );
#169 = EDGE_LOOP ( 'NONE', ( #88 ) ) ;
#170 = DIRECTION ( 'NONE',  ( -3.491481338843133355E-15, 1.224646799147353207E-16, -1.000000000000000000 ) ) ;
#171 = LOCAL_TIME ( 11, 21, 28.00000000000000000, #176 ) ;
#172 = PERSON_AND_ORGANIZATION_ROLE ( 'design_owner' ) ;
#173 = APPROVAL_STATUS ( 'not_yet_approved' ) ;
#174 = SECURITY_CLASSIFICATION_LEVEL ( 'unclassified' ) ;
#175 = PRODUCT_RELATED_PRODUCT_CATEGORY ( 'detail', '', ( #111 ) ) ;
#176 = COORDINATED_UNIVERSAL_TIME_OFFSET ( 1, 0, .AHEAD. ) ;
#177 = PERSON ( 'UNSPECIFIED', 'UNSPECIFIED', 'UNSPECIFIED', ('UNSPECIFIED'), ('UNSPECIFIED'), ('UNSPECIFIED') ) ;
#178 = CARTESIAN_POINT ( 'NONE',  ( 1.316288464743861212E-13, 1.499999999999995559, 37.69999999999999574 ) ) ;
#179 = AXIS2_PLACEMENT_3D ( 'NONE', #159, #186, #200 ) ;
#180 = DIRECTION ( 'NONE',  ( -3.491481338843133355E-15, 1.224646799147353207E-16, -1.000000000000000000 ) ) ;
#181 = CARTESIAN_POINT ( 'NONE',  ( 1.622277135789612264E-14, 1.124819836996392248E-32, 4.646386385462214719 ) ) ;
#182 = EDGE_LOOP ( 'NONE', ( #194 ) ) ;
#183 = CARTESIAN_POINT ( 'NONE',  ( 0.0000000000000000000, 0.0000000000000000000, 0.0000000000000000000 ) ) ;
#184 = AXIS2_PLACEMENT_3D ( 'NONE', #183, #121, #129 ) ;
#185 = DATE_AND_TIME ( #93, #191 ) ;
#186 = DIRECTION ( 'NONE',  ( 0.0000000000000000000, 0.0000000000000000000, 1.000000000000000000 ) ) ;
#187 = APPROVAL_DATE_TIME ( #92, #96 ) ;
#188 = MANIFOLD_SOLID_BREP ( 'Corps-Déplacer/Copier1[1]', #68 ) ;
#189 = LOCAL_TIME ( 11, 21, 28.00000000000000000, #153 ) ;
#190 = PERSON_AND_ORGANIZATION ( #177, #20 ) ;
#191 = LOCAL_TIME ( 11, 21, 28.00000000000000000, #203 ) ;
#192 = VERTEX_POINT ( 'NONE', #178 ) ;
#193 = DIRECTION ( 'NONE',  ( 3.491481338843133355E-15, -1.224646799147353207E-16, 1.000000000000000000 ) ) ;
#194 = ORIENTED_EDGE ( 'NONE', *, *, #24, .T. ) ;
#195 = APPLICATION_CONTEXT ( 'configuration controlled 3d designs of mechanical parts and assemblies' ) ;
#196 = CARTESIAN_POINT ( 'NONE',  ( 1.622277135789612264E-14, -5.690182214558141548E-16, 4.646386385462214719 ) ) ;
#197 = DIRECTION ( 'NONE',  ( -4.275831445896958607E-31, -1.000000000000000000, -1.224646799147353207E-16 ) ) ;
#198 = CC_DESIGN_PERSON_AND_ORGANIZATION_ASSIGNMENT ( #79, #139, ( #7 ) ) ;
#199 = COORDINATED_UNIVERSAL_TIME_OFFSET ( 1, 0, .AHEAD. ) ;
#200 = DIRECTION ( 'NONE',  ( 1.000000000000000000, 0.0000000000000000000, 0.0000000000000000000 ) ) ;
#201 = FACE_OUTER_BOUND ( 'NONE', #52, .T. ) ;
#202 = APPROVAL_DATE_TIME ( #32, #161 ) ;
#203 = COORDINATED_UNIVERSAL_TIME_OFFSET ( 1, 0, .AHEAD. ) ;
ENDSEC;
END-ISO-10303-21;
