ISO-10303-21;
HEADER;
FILE_DESCRIPTION (( 'STEP AP203' ),
    '1' );
FILE_NAME ('326662.step',
    '2021-11-22T10:21:28',
    ( '' ),
    ( '' ),
    'SwSTEP 2.0',
    'SolidWorks 2019',
    '' );
FILE_SCHEMA (( 'CONFIG_CONTROL_DESIGN' ));
ENDSEC;

DATA;
#1 = CC_DESIGN_PERSON_AND_ORGANIZATION_ASSIGNMENT ( #152, #147, ( #37 ) ) ;
#2 =( LENGTH_UNIT ( ) NAMED_UNIT ( * ) SI_UNIT ( .MILLI., .METRE. ) );
#3 = ORIENTED_EDGE ( 'NONE', *, *, #139, .T. ) ;
#4 = CIRCLE ( 'NONE', #167, 0.02500000000000017139 ) ;
#5 = APPROVAL_ROLE ( '' ) ;
#6 = FACE_BOUND ( 'NONE', #34, .T. ) ;
#7 = EDGE_LOOP ( 'NONE', ( #161 ) ) ;
#8 = CARTESIAN_POINT ( 'NONE',  ( 1.633350699856435005E-14, -5.729023048787207018E-16, 4.678102333485847808 ) ) ;
#9 = AXIS2_PLACEMENT_3D ( 'NONE', #125, #41, #25 ) ;
#10 = LOCAL_TIME ( 11, 21, 28.00000000000000000, #26 ) ;
#11 = DIRECTION ( 'NONE',  ( 3.491481338843133355E-15, -1.224646799147353207E-16, 1.000000000000000000 ) ) ;
#12 = CC_DESIGN_DATE_AND_TIME_ASSIGNMENT ( #90, #202, ( #100 ) ) ;
#13 = CONICAL_SURFACE ( 'NONE', #140, 1.499999999999999778, 0.3054326190990009349 ) ;
#14 = CC_DESIGN_PERSON_AND_ORGANIZATION_ASSIGNMENT ( #36, #145, ( #98 ) ) ;
#15 = AXIS2_PLACEMENT_3D ( 'NONE', #112, #154, #57 ) ;
#16 = COORDINATED_UNIVERSAL_TIME_OFFSET ( 1, 0, .AHEAD. ) ;
#17 = ADVANCED_FACE ( 'NONE', ( #193 ), #66, .T. ) ;
#18 = CARTESIAN_POINT ( 'NONE',  ( 1.326762908760390423E-13, 1.199999999999995515, 38.00000000000000000 ) ) ;
#19 = DIRECTION ( 'NONE',  ( -3.491481338843133355E-15, 1.224646799147353207E-16, -1.000000000000000000 ) ) ;
#20 = CALENDAR_DATE ( 2021, 22, 11 ) ;
#21 = DIRECTION ( 'NONE',  ( -3.491481338843133355E-15, 1.224646799147353207E-16, -1.000000000000000000 ) ) ;
#22 = EDGE_LOOP ( 'NONE', ( #101 ) ) ;
#23 = AXIS2_PLACEMENT_3D ( 'NONE', #27, #11, #79 ) ;
#24 = DATE_TIME_ROLE ( 'classification_date' ) ;
#25 = DIRECTION ( 'NONE',  ( 0.0000000000000000000, 1.000000000000000000, 0.0000000000000000000 ) ) ;
#26 = COORDINATED_UNIVERSAL_TIME_OFFSET ( 1, 0, .AHEAD. ) ;
#27 = CARTESIAN_POINT ( 'NONE',  ( -9.780888900456769944E-33, 3.430674009768326868E-34, -2.801357919815652495E-18 ) ) ;
#28 = DIRECTION ( 'NONE',  ( -3.491481338843133355E-15, 1.224646799147353207E-16, -1.000000000000000000 ) ) ;
#29 = VERTEX_POINT ( 'NONE', #97 ) ;
#30 = ADVANCED_FACE ( 'NONE', ( #6, #158 ), #13, .T. ) ;
#31 = LOCAL_TIME ( 11, 21, 28.00000000000000000, #126 ) ;
#32 = PERSON ( 'UNSPECIFIED', 'UNSPECIFIED', 'UNSPECIFIED', ('UNSPECIFIED'), ('UNSPECIFIED'), ('UNSPECIFIED') ) ;
#33 = PERSON_AND_ORGANIZATION ( #32, #156 ) ;
#34 = EDGE_LOOP ( 'NONE', ( #70 ) ) ;
#35 = APPROVAL ( #42, 'UNSPECIFIED' ) ;
#36 = PERSON_AND_ORGANIZATION ( #32, #156 ) ;
#37 = PRODUCT_DEFINITION_FORMATION_WITH_SPECIFIED_SOURCE ( 'ANY', '', #98, .NOT_KNOWN. ) ;
#38 = DATE_AND_TIME ( #43, #31 ) ;
#39 = CARTESIAN_POINT ( 'NONE',  ( 1.326762908760390423E-13, 8.998558695971078593E-33, 38.00000000000000000 ) ) ;
#40 = ADVANCED_FACE ( 'NONE', ( #53, #163 ), #54, .T. ) ;
#41 = DIRECTION ( 'NONE',  ( -3.491481338843133355E-15, 1.224646799147353207E-16, -1.000000000000000000 ) ) ;
#42 = APPROVAL_STATUS ( 'not_yet_approved' ) ;
#43 = CALENDAR_DATE ( 2021, 22, 11 ) ;
#44 = SECURITY_CLASSIFICATION ( '', '', #184 ) ;
#45 = FACE_OUTER_BOUND ( 'NONE', #22, .T. ) ;
#46 = APPROVAL ( #104, 'UNSPECIFIED' ) ;
#47 = CALENDAR_DATE ( 2021, 22, 11 ) ;
#48 = CIRCLE ( 'NONE', #130, 1.499999999999999778 ) ;
#49 = DIRECTION ( 'NONE',  ( 3.491481338843133355E-15, -1.224646799147353207E-16, 1.000000000000000000 ) ) ;
#50 = CARTESIAN_POINT ( 'NONE',  ( -1.956177780091353989E-32, 6.861348019536653737E-34, -5.602715839631304989E-18 ) ) ;
#51 = VERTEX_POINT ( 'NONE', #144 ) ;
#52 = APPROVAL_ROLE ( '' ) ;
#53 = FACE_BOUND ( 'NONE', #175, .T. ) ;
#54 = CONICAL_SURFACE ( 'NONE', #72, 1.500000000000000000, 0.7853981633974453924 ) ;
#55 = DATE_AND_TIME ( #47, #103 ) ;
#56 = DIRECTION ( 'NONE',  ( -3.491481338843133355E-15, 1.224646799147353207E-16, -1.000000000000000000 ) ) ;
#57 = DIRECTION ( 'NONE',  ( 4.275831445896959482E-31, 1.000000000000000000, 1.224646799147353207E-16 ) ) ;
#58 = AXIS2_PLACEMENT_3D ( 'NONE', #196, #149, #133 ) ;
#59 = CARTESIAN_POINT ( 'NONE',  ( 1.326762908760390423E-13, -4.653657836759941941E-15, 38.00000000000000000 ) ) ;
#60 = DIRECTION ( 'NONE',  ( 0.0000000000000000000, 1.000000000000000000, 0.0000000000000000000 ) ) ;
#61 = DIRECTION ( 'NONE',  ( 3.491481338843133355E-15, -1.224646799147353207E-16, 1.000000000000000000 ) ) ;
#62 = CC_DESIGN_APPROVAL ( #35, ( #44 ) ) ;
#63 = APPROVAL_PERSON_ORGANIZATION ( #127, #159, #52 ) ;
#64 =( NAMED_UNIT ( * ) PLANE_ANGLE_UNIT ( ) SI_UNIT ( $, .RADIAN. ) );
#65 = EDGE_CURVE ( 'NONE', #51, #51, #115, .T. ) ;
#66 = PLANE ( 'NONE',  #58 ) ;
#67 = MANIFOLD_SOLID_BREP ( 'Corps-Déplacer/Copier1[2]', #138 ) ;
#68 = CC_DESIGN_PERSON_AND_ORGANIZATION_ASSIGNMENT ( #162, #182, ( #100 ) ) ;
#69 = PERSON_AND_ORGANIZATION_ROLE ( 'creator' ) ;
#70 = ORIENTED_EDGE ( 'NONE', *, *, #75, .F. ) ;
#71 = CALENDAR_DATE ( 2021, 22, 11 ) ;
#72 = AXIS2_PLACEMENT_3D ( 'NONE', #199, #19, #93 ) ;
#73 = ORIENTED_EDGE ( 'NONE', *, *, #65, .F. ) ;
#74 = LOCAL_TIME ( 11, 21, 28.00000000000000000, #111 ) ;
#75 = EDGE_CURVE ( 'NONE', #29, #29, #4, .T. ) ;
#76 = CALENDAR_DATE ( 2021, 22, 11 ) ;
#77 = DATE_AND_TIME ( #71, #74 ) ;
#78 = PLANE ( 'NONE',  #23 ) ;
#79 = DIRECTION ( 'NONE',  ( -4.275831445896958607E-31, -1.000000000000000000, -1.224646799147353207E-16 ) ) ;
#80 = ADVANCED_FACE ( 'NONE', ( #178 ), #180, .F. ) ;
#81 = CIRCLE ( 'NONE', #9, 1.499999999999999778 ) ;
#82 = CC_DESIGN_APPROVAL ( #46, ( #100 ) ) ;
#83 = VERTEX_POINT ( 'NONE', #132 ) ;
#84 = ADVANCED_BREP_SHAPE_REPRESENTATION ( '326662', ( #136, #67, #160 ), #87 ) ;
#85 = APPLICATION_PROTOCOL_DEFINITION ( 'international standard', 'config_control_design', 1994, #185 ) ;
#86 = ORIENTED_EDGE ( 'NONE', *, *, #121, .T. ) ;
#87 =( GEOMETRIC_REPRESENTATION_CONTEXT ( 3 ) GLOBAL_UNCERTAINTY_ASSIGNED_CONTEXT ( ( #94 ) ) GLOBAL_UNIT_ASSIGNED_CONTEXT ( ( #2, #64, #141 ) ) REPRESENTATION_CONTEXT ( 'NONE', 'WORKASPACE' ) );
#88 = DIRECTION ( 'NONE',  ( 1.000000000000000000, 0.0000000000000000000, 0.0000000000000000000 ) ) ;
#89 = CARTESIAN_POINT ( 'NONE',  ( 1.316288464743861212E-13, -4.616918432785521081E-15, 37.69999999999999574 ) ) ;
#90 = DATE_AND_TIME ( #20, #10 ) ;
#91 = ORIENTED_EDGE ( 'NONE', *, *, #75, .T. ) ;
#92 = DIRECTION ( 'NONE',  ( 4.275831445896958607E-31, 1.000000000000000000, 1.224646799147353207E-16 ) ) ;
#93 = DIRECTION ( 'NONE',  ( 0.0000000000000000000, 1.000000000000000000, 0.0000000000000000000 ) ) ;
#94 = UNCERTAINTY_MEASURE_WITH_UNIT (LENGTH_MEASURE( 1.000000000000000082E-05 ), #2, 'distance_accuracy_value', 'NONE');
#95 = DATE_AND_TIME ( #76, #179 ) ;
#96 = CLOSED_SHELL ( 'NONE', ( #116, #189, #40, #80 ) ) ;
#97 = CARTESIAN_POINT ( 'NONE',  ( -8.872199186171071937E-33, 0.02500000000000017139, -2.541098841762901402E-18 ) ) ;
#98 = PRODUCT ( '326662', '326662', '', ( #176 ) ) ;
#99 = VERTEX_POINT ( 'NONE', #18 ) ;
#100 = PRODUCT_DEFINITION ( 'UNKNOWN', '', #37, #106 ) ;
#101 = ORIENTED_EDGE ( 'NONE', *, *, #65, .T. ) ;
#102 = EDGE_LOOP ( 'NONE', ( #86 ) ) ;
#103 = LOCAL_TIME ( 11, 21, 28.00000000000000000, #16 ) ;
#104 = APPROVAL_STATUS ( 'not_yet_approved' ) ;
#105 = DIRECTION ( 'NONE',  ( 4.275831445896958607E-31, 1.000000000000000000, 1.224646799147353207E-16 ) ) ;
#106 = DESIGN_CONTEXT ( 'detailed design', #157, 'design' ) ;
#107 = COORDINATED_UNIVERSAL_TIME_OFFSET ( 1, 0, .AHEAD. ) ;
#108 = PLANE ( 'NONE',  #188 ) ;
#109 = APPROVAL_DATE_TIME ( #95, #159 ) ;
#110 = PERSON_AND_ORGANIZATION ( #32, #156 ) ;
#111 = COORDINATED_UNIVERSAL_TIME_OFFSET ( 1, 0, .AHEAD. ) ;
#112 = CARTESIAN_POINT ( 'NONE',  ( 0.0000000000000000000, 0.0000000000000000000, 0.0000000000000000000 ) ) ;
#113 = CC_DESIGN_PERSON_AND_ORGANIZATION_ASSIGNMENT ( #123, #183, ( #44 ) ) ;
#114 = CARTESIAN_POINT ( 'NONE',  ( 0.0000000000000000000, 0.0000000000000000000, 0.0000000000000000000 ) ) ;
#115 = CIRCLE ( 'NONE', #170, 1.500000000000000000 ) ;
#116 = ADVANCED_FACE ( 'NONE', ( #181 ), #108, .F. ) ;
#117 = EDGE_LOOP ( 'NONE', ( #73 ) ) ;
#118 = DIRECTION ( 'NONE',  ( 0.0000000000000000000, -1.000000000000000000, 0.0000000000000000000 ) ) ;
#119 = DIRECTION ( 'NONE',  ( -3.491481338843133355E-15, 1.224646799147353207E-16, -1.000000000000000000 ) ) ;
#120 = PRODUCT_RELATED_PRODUCT_CATEGORY ( 'detail', '', ( #98 ) ) ;
#121 = EDGE_CURVE ( 'NONE', #83, #83, #48, .T. ) ;
#122 = DIRECTION ( 'NONE',  ( 0.0000000000000000000, 1.000000000000000000, 0.0000000000000000000 ) ) ;
#123 = PERSON_AND_ORGANIZATION ( #32, #156 ) ;
#124 = APPROVAL_STATUS ( 'not_yet_approved' ) ;
#125 = CARTESIAN_POINT ( 'NONE',  ( 1.633350699856435005E-14, -5.729023048787207018E-16, 4.678102333485847808 ) ) ;
#126 = COORDINATED_UNIVERSAL_TIME_OFFSET ( 1, 0, .AHEAD. ) ;
#127 = PERSON_AND_ORGANIZATION ( #32, #156 ) ;
#128 = DIRECTION ( 'NONE',  ( -3.491481338843133355E-15, 1.224646799147353207E-16, -1.000000000000000000 ) ) ;
#129 = APPROVAL_PERSON_ORGANIZATION ( #198, #35, #165 ) ;
#130 = AXIS2_PLACEMENT_3D ( 'NONE', #135, #28, #60 ) ;
#131 = VERTEX_POINT ( 'NONE', #194 ) ;
#132 = CARTESIAN_POINT ( 'NONE',  ( 1.633350699856435005E-14, 1.499999999999999112, 4.678102333485847808 ) ) ;
#133 = DIRECTION ( 'NONE',  ( -4.275831445896958607E-31, -1.000000000000000000, -1.224646799147353207E-16 ) ) ;
#134 = EDGE_LOOP ( 'NONE', ( #143 ) ) ;
#135 = CARTESIAN_POINT ( 'NONE',  ( 1.633350699856435005E-14, -5.729023048787207018E-16, 4.678102333485847808 ) ) ;
#136 = MANIFOLD_SOLID_BREP ( 'Corps-Déplacer/Copier1[1]', #96 ) ;
#137 = SHAPE_DEFINITION_REPRESENTATION ( #172, #84 ) ;
#138 = CLOSED_SHELL ( 'NONE', ( #142, #30, #17 ) ) ;
#139 = EDGE_CURVE ( 'NONE', #99, #99, #173, .T. ) ;
#140 = AXIS2_PLACEMENT_3D ( 'NONE', #8, #49, #118 ) ;
#141 =( NAMED_UNIT ( * ) SI_UNIT ( $, .STERADIAN. ) SOLID_ANGLE_UNIT ( ) );
#142 = ADVANCED_FACE ( 'NONE', ( #153 ), #78, .F. ) ;
#143 = ORIENTED_EDGE ( 'NONE', *, *, #139, .F. ) ;
#144 = CARTESIAN_POINT ( 'NONE',  ( 1.316288464743861212E-13, 1.499999999999995559, 37.69999999999999574 ) ) ;
#145 = PERSON_AND_ORGANIZATION_ROLE ( 'design_owner' ) ;
#146 = EDGE_LOOP ( 'NONE', ( #91 ) ) ;
#147 = PERSON_AND_ORGANIZATION_ROLE ( 'design_supplier' ) ;
#148 = EDGE_LOOP ( 'NONE', ( #150 ) ) ;
#149 = DIRECTION ( 'NONE',  ( 3.491481338843133355E-15, -1.224646799147353207E-16, 1.000000000000000000 ) ) ;
#150 = ORIENTED_EDGE ( 'NONE', *, *, #201, .F. ) ;
#151 = FACE_OUTER_BOUND ( 'NONE', #7, .T. ) ;
#152 = PERSON_AND_ORGANIZATION ( #32, #156 ) ;
#153 = FACE_OUTER_BOUND ( 'NONE', #146, .T. ) ;
#154 = DIRECTION ( 'NONE',  ( -3.491481338843133355E-15, 1.224646799147353207E-16, -1.000000000000000000 ) ) ;
#155 = AXIS2_PLACEMENT_3D ( 'NONE', #39, #21, #92 ) ;
#156 = ORGANIZATION ( 'UNSPECIFIED', 'UNSPECIFIED', '' ) ;
#157 = APPLICATION_CONTEXT ( 'configuration controlled 3d designs of mechanical parts and assemblies' ) ;
#158 = FACE_OUTER_BOUND ( 'NONE', #177, .T. ) ;
#159 = APPROVAL ( #124, 'UNSPECIFIED' ) ;
#160 = AXIS2_PLACEMENT_3D ( 'NONE', #114, #192, #88 ) ;
#161 = ORIENTED_EDGE ( 'NONE', *, *, #121, .F. ) ;
#162 = PERSON_AND_ORGANIZATION ( #32, #156 ) ;
#163 = FACE_OUTER_BOUND ( 'NONE', #117, .T. ) ;
#164 = CC_DESIGN_DATE_AND_TIME_ASSIGNMENT ( #77, #24, ( #44 ) ) ;
#165 = APPROVAL_ROLE ( '' ) ;
#166 = CARTESIAN_POINT ( 'NONE',  ( 1.633350699856435320E-14, 2.705071313639927826E-15, 4.678102333485848696 ) ) ;
#167 = AXIS2_PLACEMENT_3D ( 'NONE', #50, #119, #105 ) ;
#168 = APPROVAL_DATE_TIME ( #38, #35 ) ;
#169 = APPROVAL_DATE_TIME ( #55, #46 ) ;
#170 = AXIS2_PLACEMENT_3D ( 'NONE', #89, #56, #122 ) ;
#171 = DIRECTION ( 'NONE',  ( 0.0000000000000000000, 1.000000000000000000, 0.0000000000000000000 ) ) ;
#172 = PRODUCT_DEFINITION_SHAPE ( 'NONE', 'NONE',  #100 ) ;
#173 = CIRCLE ( 'NONE', #187, 1.200000000000000178 ) ;
#174 = CC_DESIGN_SECURITY_CLASSIFICATION ( #44, ( #37 ) ) ;
#175 = EDGE_LOOP ( 'NONE', ( #3 ) ) ;
#176 = MECHANICAL_CONTEXT ( 'NONE', #185, 'mechanical' ) ;
#177 = EDGE_LOOP ( 'NONE', ( #195 ) ) ;
#178 = FACE_OUTER_BOUND ( 'NONE', #134, .T. ) ;
#179 = LOCAL_TIME ( 11, 21, 28.00000000000000000, #107 ) ;
#180 = PLANE ( 'NONE',  #155 ) ;
#181 = FACE_OUTER_BOUND ( 'NONE', #102, .T. ) ;
#182 = PERSON_AND_ORGANIZATION_ROLE ( 'creator' ) ;
#183 = PERSON_AND_ORGANIZATION_ROLE ( 'classification_officer' ) ;
#184 = SECURITY_CLASSIFICATION_LEVEL ( 'unclassified' ) ;
#185 = APPLICATION_CONTEXT ( 'configuration controlled 3d designs of mechanical parts and assemblies' ) ;
#186 = CC_DESIGN_PERSON_AND_ORGANIZATION_ASSIGNMENT ( #110, #69, ( #37 ) ) ;
#187 = AXIS2_PLACEMENT_3D ( 'NONE', #59, #128, #171 ) ;
#188 = AXIS2_PLACEMENT_3D ( 'NONE', #166, #61, #203 ) ;
#189 = ADVANCED_FACE ( 'NONE', ( #45, #151 ), #200, .T. ) ;
#190 = APPROVAL_PERSON_ORGANIZATION ( #33, #46, #5 ) ;
#191 = APPLICATION_PROTOCOL_DEFINITION ( 'international standard', 'config_control_design', 1994, #157 ) ;
#192 = DIRECTION ( 'NONE',  ( 0.0000000000000000000, 0.0000000000000000000, 1.000000000000000000 ) ) ;
#193 = FACE_OUTER_BOUND ( 'NONE', #148, .T. ) ;
#194 = CARTESIAN_POINT ( 'NONE',  ( 1.633350699856435005E-14, 1.499999999999999112, 4.678102333485847808 ) ) ;
#195 = ORIENTED_EDGE ( 'NONE', *, *, #201, .T. ) ;
#196 = CARTESIAN_POINT ( 'NONE',  ( 1.633350699856435320E-14, 2.705071313639927826E-15, 4.678102333485848696 ) ) ;
#197 = CC_DESIGN_APPROVAL ( #159, ( #37 ) ) ;
#198 = PERSON_AND_ORGANIZATION ( #32, #156 ) ;
#199 = CARTESIAN_POINT ( 'NONE',  ( 1.316288464743861212E-13, -4.616918432785521081E-15, 37.69999999999999574 ) ) ;
#200 = CYLINDRICAL_SURFACE ( 'NONE', #15, 1.500000000000000000 ) ;
#201 = EDGE_CURVE ( 'NONE', #131, #131, #81, .T. ) ;
#202 = DATE_TIME_ROLE ( 'creation_date' ) ;
#203 = DIRECTION ( 'NONE',  ( -4.275831445896958607E-31, -1.000000000000000000, -1.224646799147353207E-16 ) ) ;
ENDSEC;
END-ISO-10303-21;
