ISO-10303-21;
HEADER;
FILE_DESCRIPTION (( 'STEP AP203' ),
    '1' );
FILE_NAME ('32642.step',
    '2021-10-15T13:34:37',
    ( '' ),
    ( '' ),
    'SwSTEP 2.0',
    'SolidWorks 2019',
    '' );
FILE_SCHEMA (( 'CONFIG_CONTROL_DESIGN' ));
ENDSEC;

DATA;
#1 = ORIENTED_EDGE ( 'NONE', *, *, #198, .T. ) ;
#2 = EDGE_CURVE ( 'NONE', #10, #10, #99, .T. ) ;
#3 = APPROVAL_STATUS ( 'not_yet_approved' ) ;
#4 = CARTESIAN_POINT ( 'NONE',  ( 1.885399922975292012E-13, -6.613092715395707467E-15, 54.00000000000000000 ) ) ;
#5 = FACE_OUTER_BOUND ( 'NONE', #52, .T. ) ;
#6 = ADVANCED_BREP_SHAPE_REPRESENTATION ( '32642', ( #73, #138, #43 ), #22 ) ;
#7 =( NAMED_UNIT ( * ) SI_UNIT ( $, .STERADIAN. ) SOLID_ANGLE_UNIT ( ) );
#8 = AXIS2_PLACEMENT_3D ( 'NONE', #84, #103, #21 ) ;
#9 = AXIS2_PLACEMENT_3D ( 'NONE', #179, #135, #109 ) ;
#10 = VERTEX_POINT ( 'NONE', #71 ) ;
#11 = DIRECTION ( 'NONE',  ( -3.491481338843133355E-15, 1.224646799147353207E-16, -1.000000000000000000 ) ) ;
#12 = AXIS2_PLACEMENT_3D ( 'NONE', #4, #113, #174 ) ;
#13 = PRODUCT ( '32642', '32642', '', ( #37 ) ) ;
#14 = APPROVAL_DATE_TIME ( #188, #77 ) ;
#15 = DATE_TIME_ROLE ( 'creation_date' ) ;
#16 = ORIENTED_EDGE ( 'NONE', *, *, #45, .T. ) ;
#17 = EDGE_LOOP ( 'NONE', ( #127 ) ) ;
#18 = DIRECTION ( 'NONE',  ( 1.000000000000000000, 0.0000000000000000000, 0.0000000000000000000 ) ) ;
#19 = SECURITY_CLASSIFICATION ( '', '', #137 ) ;
#20 = EDGE_LOOP ( 'NONE', ( #1 ) ) ;
#21 = DIRECTION ( 'NONE',  ( -4.275831445896958607E-31, -1.000000000000000000, -1.224646799147353207E-16 ) ) ;
#22 =( GEOMETRIC_REPRESENTATION_CONTEXT ( 3 ) GLOBAL_UNCERTAINTY_ASSIGNED_CONTEXT ( ( #35 ) ) GLOBAL_UNIT_ASSIGNED_CONTEXT ( ( #25, #34, #7 ) ) REPRESENTATION_CONTEXT ( 'NONE', 'WORKASPACE' ) );
#23 = FACE_OUTER_BOUND ( 'NONE', #91, .T. ) ;
#24 = PERSON_AND_ORGANIZATION ( #30, #31 ) ;
#25 =( LENGTH_UNIT ( ) NAMED_UNIT ( * ) SI_UNIT ( .MILLI., .METRE. ) );
#26 = CALENDAR_DATE ( 2021, 15, 10 ) ;
#27 = ADVANCED_FACE ( 'NONE', ( #67 ), #32, .F. ) ;
#28 = DATE_AND_TIME ( #172, #160 ) ;
#29 = CONICAL_SURFACE ( 'NONE', #199, 6.749999999999987566, 1.221730476396026388 ) ;
#30 = PERSON ( 'UNSPECIFIED', 'UNSPECIFIED', 'UNSPECIFIED', ('UNSPECIFIED'), ('UNSPECIFIED'), ('UNSPECIFIED') ) ;
#31 = ORGANIZATION ( 'UNSPECIFIED', 'UNSPECIFIED', '' ) ;
#32 = PLANE ( 'NONE',  #42 ) ;
#33 = CC_DESIGN_PERSON_AND_ORGANIZATION_ASSIGNMENT ( #88, #186, ( #153 ) ) ;
#34 =( NAMED_UNIT ( * ) PLANE_ANGLE_UNIT ( ) SI_UNIT ( $, .RADIAN. ) );
#35 = UNCERTAINTY_MEASURE_WITH_UNIT (LENGTH_MEASURE( 1.000000000000000082E-05 ), #25, 'distance_accuracy_value', 'NONE');
#36 = FACE_BOUND ( 'NONE', #20, .T. ) ;
#37 = MECHANICAL_CONTEXT ( 'NONE', #177, 'mechanical' ) ;
#38 = CARTESIAN_POINT ( 'NONE',  ( 1.885399922975292012E-13, -6.613092715395707467E-15, 54.00000000000000000 ) ) ;
#39 = APPROVAL_PERSON_ORGANIZATION ( #170, #77, #124 ) ;
#40 = COORDINATED_UNIVERSAL_TIME_OFFSET ( 1, 0, .AHEAD. ) ;
#41 = CARTESIAN_POINT ( 'NONE',  ( 3.700970219173721104E-13, 6.749999999999987566, 106.0000000000000000 ) ) ;
#42 = AXIS2_PLACEMENT_3D ( 'NONE', #97, #140, #163 ) ;
#43 = AXIS2_PLACEMENT_3D ( 'NONE', #193, #134, #18 ) ;
#44 = PERSON_AND_ORGANIZATION_ROLE ( 'design_supplier' ) ;
#45 = EDGE_CURVE ( 'NONE', #181, #181, #92, .T. ) ;
#46 = AXIS2_PLACEMENT_3D ( 'NONE', #169, #168, #185 ) ;
#47 = APPROVAL_STATUS ( 'not_yet_approved' ) ;
#48 = PRODUCT_DEFINITION ( 'UNKNOWN', '', #153, #102 ) ;
#49 = ORIENTED_EDGE ( 'NONE', *, *, #2, .F. ) ;
#50 = CC_DESIGN_SECURITY_CLASSIFICATION ( #19, ( #153 ) ) ;
#51 = APPROVAL ( #47, 'UNSPECIFIED' ) ;
#52 = EDGE_LOOP ( 'NONE', ( #166 ) ) ;
#53 = FACE_OUTER_BOUND ( 'NONE', #144, .T. ) ;
#54 = ADVANCED_FACE ( 'NONE', ( #53 ), #146, .T. ) ;
#55 = DIRECTION ( 'NONE',  ( 4.275831445896958607E-31, 1.000000000000000000, 1.224646799147353207E-16 ) ) ;
#56 = DIRECTION ( 'NONE',  ( -4.275831445896958607E-31, -1.000000000000000000, -1.224646799147353207E-16 ) ) ;
#57 = ADVANCED_FACE ( 'NONE', ( #60, #68 ), #171, .T. ) ;
#58 = FACE_OUTER_BOUND ( 'NONE', #178, .T. ) ;
#59 = CC_DESIGN_APPROVAL ( #108, ( #48 ) ) ;
#60 = FACE_OUTER_BOUND ( 'NONE', #141, .T. ) ;
#61 = CIRCLE ( 'NONE', #164, 6.749999999999994671 ) ;
#62 = APPROVAL_PERSON_ORGANIZATION ( #63, #51, #107 ) ;
#63 = PERSON_AND_ORGANIZATION ( #30, #31 ) ;
#64 = ORIENTED_EDGE ( 'NONE', *, *, #96, .F. ) ;
#65 = EDGE_LOOP ( 'NONE', ( #16 ) ) ;
#66 = APPROVAL_ROLE ( '' ) ;
#67 = FACE_OUTER_BOUND ( 'NONE', #17, .T. ) ;
#68 = FACE_OUTER_BOUND ( 'NONE', #80, .T. ) ;
#69 = CARTESIAN_POINT ( 'NONE',  ( 3.735885032562152816E-13, -1.310372075087667979E-14, 107.0000000000000000 ) ) ;
#70 = CC_DESIGN_APPROVAL ( #51, ( #19 ) ) ;
#71 = CARTESIAN_POINT ( 'NONE',  ( 1.885399922975292012E-13, 6.749999999999987566, 54.00000000000000000 ) ) ;
#72 = VERTEX_POINT ( 'NONE', #195 ) ;
#73 = MANIFOLD_SOLID_BREP ( 'Corps-Déplacer/Copier1[1]', #79 ) ;
#74 = CLOSED_SHELL ( 'NONE', ( #120, #57, #54 ) ) ;
#75 = AXIS2_PLACEMENT_3D ( 'NONE', #192, #83, #150 ) ;
#76 = APPROVAL_STATUS ( 'not_yet_approved' ) ;
#77 = APPROVAL ( #76, 'UNSPECIFIED' ) ;
#78 = DATE_AND_TIME ( #26, #154 ) ;
#79 = CLOSED_SHELL ( 'NONE', ( #147, #176, #82, #27 ) ) ;
#80 = EDGE_LOOP ( 'NONE', ( #94 ) ) ;
#81 = APPLICATION_PROTOCOL_DEFINITION ( 'international standard', 'config_control_design', 1994, #145 ) ;
#82 = ADVANCED_FACE ( 'NONE', ( #23, #36 ), #197, .T. ) ;
#83 = DIRECTION ( 'NONE',  ( -3.491481338843133355E-15, 1.224646799147353207E-16, -1.000000000000000000 ) ) ;
#84 = CARTESIAN_POINT ( 'NONE',  ( 1.885399922975292012E-13, 5.061689266483755468E-32, 54.00000000000000000 ) ) ;
#85 = CARTESIAN_POINT ( 'NONE',  ( 1.885399922975292012E-13, 5.061689266483755468E-32, 54.00000000000000000 ) ) ;
#86 = DIRECTION ( 'NONE',  ( -3.491481338843133355E-15, 1.224646799147353207E-16, -1.000000000000000000 ) ) ;
#87 = SHAPE_DEFINITION_REPRESENTATION ( #187, #6 ) ;
#88 = PERSON_AND_ORGANIZATION ( #30, #31 ) ;
#89 = COORDINATED_UNIVERSAL_TIME_OFFSET ( 1, 0, .AHEAD. ) ;
#90 = PERSON_AND_ORGANIZATION_ROLE ( 'creator' ) ;
#91 = EDGE_LOOP ( 'NONE', ( #203 ) ) ;
#92 = CIRCLE ( 'NONE', #159, 6.749999999999987566 ) ;
#93 = LOCAL_TIME ( 15, 34, 37.00000000000000000, #128 ) ;
#94 = ORIENTED_EDGE ( 'NONE', *, *, #96, .T. ) ;
#95 = PERSON_AND_ORGANIZATION ( #30, #31 ) ;
#96 = EDGE_CURVE ( 'NONE', #72, #72, #61, .T. ) ;
#97 = CARTESIAN_POINT ( 'NONE',  ( 3.735885032562152816E-13, 4.311809375152821738E-32, 107.0000000000000000 ) ) ;
#98 = CALENDAR_DATE ( 2021, 15, 10 ) ;
#99 = CIRCLE ( 'NONE', #12, 6.749999999999994671 ) ;
#100 = DIRECTION ( 'NONE',  ( 4.565167275584567071E-31, 1.000000000000000000, 1.284980352575414918E-16 ) ) ;
#101 = DIRECTION ( 'NONE',  ( 3.491481338843133355E-15, -1.224646799147353207E-16, 1.000000000000000000 ) ) ;
#102 = DESIGN_CONTEXT ( 'detailed design', #145, 'design' ) ;
#103 = DIRECTION ( 'NONE',  ( 3.491481338843133355E-15, -1.224646799147353207E-16, 1.000000000000000000 ) ) ;
#104 = APPROVAL_PERSON_ORGANIZATION ( #142, #108, #66 ) ;
#105 = PERSON_AND_ORGANIZATION_ROLE ( 'classification_officer' ) ;
#106 = DIRECTION ( 'NONE',  ( 0.0000000000000000000, 1.000000000000000000, 0.0000000000000000000 ) ) ;
#107 = APPROVAL_ROLE ( '' ) ;
#108 = APPROVAL ( #3, 'UNSPECIFIED' ) ;
#109 = DIRECTION ( 'NONE',  ( 0.0000000000000000000, 1.000000000000000000, 0.0000000000000000000 ) ) ;
#110 = DATE_AND_TIME ( #118, #173 ) ;
#111 = AXIS2_PLACEMENT_3D ( 'NONE', #69, #11, #194 ) ;
#112 = CIRCLE ( 'NONE', #9, 5.750000000000000888 ) ;
#113 = DIRECTION ( 'NONE',  ( -3.491481338843133355E-15, 1.224646799147353207E-16, -1.000000000000000000 ) ) ;
#114 = DATE_AND_TIME ( #98, #93 ) ;
#115 = CYLINDRICAL_SURFACE ( 'NONE', #75, 6.749999999999997335 ) ;
#116 = DIRECTION ( 'NONE',  ( -4.565167275584567071E-31, -1.000000000000000000, -1.284980352575414918E-16 ) ) ;
#117 = PLANE ( 'NONE',  #143 ) ;
#118 = CALENDAR_DATE ( 2021, 15, 10 ) ;
#119 = DIRECTION ( 'NONE',  ( 3.491481338843133355E-15, -1.224646799147353207E-16, 1.000000000000000000 ) ) ;
#120 = ADVANCED_FACE ( 'NONE', ( #152 ), #29, .T. ) ;
#121 = APPROVAL_DATE_TIME ( #110, #51 ) ;
#122 = CARTESIAN_POINT ( 'NONE',  ( 0.0000000000000000000, 0.0000000000000000000, 0.0000000000000000000 ) ) ;
#123 = CIRCLE ( 'NONE', #46, 6.750000000000000888 ) ;
#124 = APPROVAL_ROLE ( '' ) ;
#125 = DATE_TIME_ROLE ( 'classification_date' ) ;
#126 = CC_DESIGN_DATE_AND_TIME_ASSIGNMENT ( #28, #15, ( #48 ) ) ;
#127 = ORIENTED_EDGE ( 'NONE', *, *, #198, .F. ) ;
#128 = COORDINATED_UNIVERSAL_TIME_OFFSET ( 1, 0, .AHEAD. ) ;
#129 = CARTESIAN_POINT ( 'NONE',  ( 8.577868145635057710E-15, -3.008711131058398927E-16, 2.456799081296893839 ) ) ;
#130 = CARTESIAN_POINT ( 'NONE',  ( 8.577868145635057710E-15, -3.008711131058398927E-16, 2.456799081296893839 ) ) ;
#131 = CC_DESIGN_PERSON_AND_ORGANIZATION_ASSIGNMENT ( #24, #105, ( #19 ) ) ;
#132 = VERTEX_POINT ( 'NONE', #167 ) ;
#133 = CARTESIAN_POINT ( 'NONE',  ( 8.577868145635060865E-15, 6.749999999999987566, 2.456799081296894727 ) ) ;
#134 = DIRECTION ( 'NONE',  ( 0.0000000000000000000, 0.0000000000000000000, 1.000000000000000000 ) ) ;
#135 = DIRECTION ( 'NONE',  ( -3.491481338843133355E-15, 1.224646799147353207E-16, -1.000000000000000000 ) ) ;
#136 = PERSON_AND_ORGANIZATION ( #30, #31 ) ;
#137 = SECURITY_CLASSIFICATION_LEVEL ( 'unclassified' ) ;
#138 = MANIFOLD_SOLID_BREP ( 'Corps-Déplacer/Copier1[2]', #74 ) ;
#139 = CC_DESIGN_PERSON_AND_ORGANIZATION_ASSIGNMENT ( #95, #162, ( #13 ) ) ;
#140 = DIRECTION ( 'NONE',  ( -3.491481338843133355E-15, 1.224646799147353207E-16, -1.000000000000000000 ) ) ;
#141 = EDGE_LOOP ( 'NONE', ( #158 ) ) ;
#142 = PERSON_AND_ORGANIZATION ( #30, #31 ) ;
#143 = AXIS2_PLACEMENT_3D ( 'NONE', #85, #101, #56 ) ;
#144 = EDGE_LOOP ( 'NONE', ( #64 ) ) ;
#145 = APPLICATION_CONTEXT ( 'configuration controlled 3d designs of mechanical parts and assemblies' ) ;
#146 = PLANE ( 'NONE',  #8 ) ;
#147 = ADVANCED_FACE ( 'NONE', ( #148 ), #117, .F. ) ;
#148 = FACE_OUTER_BOUND ( 'NONE', #190, .T. ) ;
#149 = AXIS2_PLACEMENT_3D ( 'NONE', #122, #86, #55 ) ;
#150 = DIRECTION ( 'NONE',  ( 4.275831445896958607E-31, 1.000000000000000000, 1.224646799147353207E-16 ) ) ;
#151 = EDGE_CURVE ( 'NONE', #184, #184, #123, .T. ) ;
#152 = FACE_OUTER_BOUND ( 'NONE', #65, .T. ) ;
#153 = PRODUCT_DEFINITION_FORMATION_WITH_SPECIFIED_SOURCE ( 'ANY', '', #13, .NOT_KNOWN. ) ;
#154 = LOCAL_TIME ( 15, 34, 37.00000000000000000, #201 ) ;
#155 = PERSON_AND_ORGANIZATION ( #30, #31 ) ;
#156 = CC_DESIGN_DATE_AND_TIME_ASSIGNMENT ( #78, #125, ( #19 ) ) ;
#157 = CALENDAR_DATE ( 2021, 15, 10 ) ;
#158 = ORIENTED_EDGE ( 'NONE', *, *, #45, .F. ) ;
#159 = AXIS2_PLACEMENT_3D ( 'NONE', #129, #191, #100 ) ;
#160 = LOCAL_TIME ( 15, 34, 37.00000000000000000, #200 ) ;
#161 = ORIENTED_EDGE ( 'NONE', *, *, #2, .T. ) ;
#162 = PERSON_AND_ORGANIZATION_ROLE ( 'design_owner' ) ;
#163 = DIRECTION ( 'NONE',  ( 4.275831445896958607E-31, 1.000000000000000000, 1.224646799147353207E-16 ) ) ;
#164 = AXIS2_PLACEMENT_3D ( 'NONE', #38, #180, #106 ) ;
#165 = APPLICATION_PROTOCOL_DEFINITION ( 'international standard', 'config_control_design', 1994, #177 ) ;
#166 = ORIENTED_EDGE ( 'NONE', *, *, #151, .T. ) ;
#167 = CARTESIAN_POINT ( 'NONE',  ( 3.735885032562152816E-13, 5.749999999999987566, 107.0000000000000000 ) ) ;
#168 = DIRECTION ( 'NONE',  ( -3.491481338843133355E-15, 1.224646799147353207E-16, -1.000000000000000000 ) ) ;
#169 = CARTESIAN_POINT ( 'NONE',  ( 3.700970219173721104E-13, -1.298125607096194306E-14, 106.0000000000000000 ) ) ;
#170 = PERSON_AND_ORGANIZATION ( #30, #31 ) ;
#171 = CYLINDRICAL_SURFACE ( 'NONE', #149, 6.749999999999991118 ) ;
#172 = CALENDAR_DATE ( 2021, 15, 10 ) ;
#173 = LOCAL_TIME ( 15, 34, 37.00000000000000000, #89 ) ;
#174 = DIRECTION ( 'NONE',  ( 0.0000000000000000000, 1.000000000000000000, 0.0000000000000000000 ) ) ;
#175 = APPROVAL_DATE_TIME ( #114, #108 ) ;
#176 = ADVANCED_FACE ( 'NONE', ( #58, #5 ), #115, .T. ) ;
#177 = APPLICATION_CONTEXT ( 'configuration controlled 3d designs of mechanical parts and assemblies' ) ;
#178 = EDGE_LOOP ( 'NONE', ( #49 ) ) ;
#179 = CARTESIAN_POINT ( 'NONE',  ( 3.735885032562152816E-13, -1.310372075087667979E-14, 107.0000000000000000 ) ) ;
#180 = DIRECTION ( 'NONE',  ( -3.491481338843133355E-15, 1.224646799147353207E-16, -1.000000000000000000 ) ) ;
#181 = VERTEX_POINT ( 'NONE', #133 ) ;
#182 = PRODUCT_RELATED_PRODUCT_CATEGORY ( 'detail', '', ( #13 ) ) ;
#183 = LOCAL_TIME ( 15, 34, 37.00000000000000000, #40 ) ;
#184 = VERTEX_POINT ( 'NONE', #41 ) ;
#185 = DIRECTION ( 'NONE',  ( 0.0000000000000000000, 1.000000000000000000, 0.0000000000000000000 ) ) ;
#186 = PERSON_AND_ORGANIZATION_ROLE ( 'creator' ) ;
#187 = PRODUCT_DEFINITION_SHAPE ( 'NONE', 'NONE',  #48 ) ;
#188 = DATE_AND_TIME ( #157, #183 ) ;
#189 = CC_DESIGN_APPROVAL ( #77, ( #153 ) ) ;
#190 = EDGE_LOOP ( 'NONE', ( #161 ) ) ;
#191 = DIRECTION ( 'NONE',  ( -3.491481338843133355E-15, 1.224646799147353207E-16, -1.000000000000000000 ) ) ;
#192 = CARTESIAN_POINT ( 'NONE',  ( 0.0000000000000000000, 0.0000000000000000000, 0.0000000000000000000 ) ) ;
#193 = CARTESIAN_POINT ( 'NONE',  ( 0.0000000000000000000, 0.0000000000000000000, 0.0000000000000000000 ) ) ;
#194 = DIRECTION ( 'NONE',  ( 0.0000000000000000000, 1.000000000000000000, 0.0000000000000000000 ) ) ;
#195 = CARTESIAN_POINT ( 'NONE',  ( 1.885399922975292012E-13, 6.749999999999987566, 54.00000000000000000 ) ) ;
#196 = CC_DESIGN_PERSON_AND_ORGANIZATION_ASSIGNMENT ( #136, #90, ( #48 ) ) ;
#197 = CONICAL_SURFACE ( 'NONE', #111, 5.750000000000000888, 0.7853981633974479459 ) ;
#198 = EDGE_CURVE ( 'NONE', #132, #132, #112, .T. ) ;
#199 = AXIS2_PLACEMENT_3D ( 'NONE', #130, #119, #116 ) ;
#200 = COORDINATED_UNIVERSAL_TIME_OFFSET ( 1, 0, .AHEAD. ) ;
#201 = COORDINATED_UNIVERSAL_TIME_OFFSET ( 1, 0, .AHEAD. ) ;
#202 = CC_DESIGN_PERSON_AND_ORGANIZATION_ASSIGNMENT ( #155, #44, ( #153 ) ) ;
#203 = ORIENTED_EDGE ( 'NONE', *, *, #151, .F. ) ;
ENDSEC;
END-ISO-10303-21;
