ISO-10303-21;
HEADER;
FILE_DESCRIPTION (( 'STEP AP203' ),
    '1' );
FILE_NAME ('32641.step',
    '2021-10-15T13:34:36',
    ( '' ),
    ( '' ),
    'SwSTEP 2.0',
    'SolidWorks 2019',
    '' );
FILE_SCHEMA (( 'CONFIG_CONTROL_DESIGN' ));
ENDSEC;

DATA;
#1 = PERSON_AND_ORGANIZATION ( #140, #18 ) ;
#2 = DIRECTION ( 'NONE',  ( -4.275831445896958607E-31, -1.000000000000000000, -1.224646799147353207E-16 ) ) ;
#3 = ORIENTED_EDGE ( 'NONE', *, *, #177, .F. ) ;
#4 = VERTEX_POINT ( 'NONE', #116 ) ;
#5 = FACE_OUTER_BOUND ( 'NONE', #166, .T. ) ;
#6 = APPROVAL_PERSON_ORGANIZATION ( #1, #102, #88 ) ;
#7 = EDGE_CURVE ( 'NONE', #17, #17, #31, .T. ) ;
#8 = CARTESIAN_POINT ( 'NONE',  ( 7.942470505217651228E-15, -2.785843639868889502E-16, 2.274813964163791891 ) ) ;
#9 = EDGE_LOOP ( 'NONE', ( #106 ) ) ;
#10 = DIRECTION ( 'NONE',  ( 0.0000000000000000000, 1.000000000000000000, 0.0000000000000000000 ) ) ;
#11 = CONICAL_SURFACE ( 'NONE', #191, 5.250000000000003553, 0.7853981633974548293 ) ;
#12 = APPROVAL_ROLE ( '' ) ;
#13 = APPROVAL_DATE_TIME ( #56, #132 ) ;
#14 = APPLICATION_CONTEXT ( 'configuration controlled 3d designs of mechanical parts and assemblies' ) ;
#15 = EDGE_LOOP ( 'NONE', ( #130 ) ) ;
#16 = LOCAL_TIME ( 15, 34, 36.00000000000000000, #122 ) ;
#17 = VERTEX_POINT ( 'NONE', #135 ) ;
#18 = ORGANIZATION ( 'UNSPECIFIED', 'UNSPECIFIED', '' ) ;
#19 = ADVANCED_BREP_SHAPE_REPRESENTATION ( '32641', ( #70, #69, #94 ), #163 ) ;
#20 = PERSON_AND_ORGANIZATION ( #140, #18 ) ;
#21 = EDGE_LOOP ( 'NONE', ( #23 ) ) ;
#22 = EDGE_CURVE ( 'NONE', #4, #4, #138, .T. ) ;
#23 = ORIENTED_EDGE ( 'NONE', *, *, #195, .T. ) ;
#24 = AXIS2_PLACEMENT_3D ( 'NONE', #182, #74, #2 ) ;
#25 = DIRECTION ( 'NONE',  ( 4.275831445896958607E-31, 1.000000000000000000, 1.224646799147353207E-16 ) ) ;
#26 = CC_DESIGN_APPROVAL ( #132, ( #110 ) ) ;
#27 = CARTESIAN_POINT ( 'NONE',  ( 0.0000000000000000000, 0.0000000000000000000, 0.0000000000000000000 ) ) ;
#28 = CLOSED_SHELL ( 'NONE', ( #151, #149, #67, #79 ) ) ;
#29 = CC_DESIGN_PERSON_AND_ORGANIZATION_ASSIGNMENT ( #161, #188, ( #150 ) ) ;
#30 = CARTESIAN_POINT ( 'NONE',  ( 1.780655482809997885E-13, -6.245698675651500444E-15, 51.00000000000000000 ) ) ;
#31 = CIRCLE ( 'NONE', #39, 5.250000000000003553 ) ;
#32 = DATE_TIME_ROLE ( 'creation_date' ) ;
#33 = DIRECTION ( 'NONE',  ( -3.491481338843133355E-15, 1.224646799147353207E-16, -1.000000000000000000 ) ) ;
#34 = VERTEX_POINT ( 'NONE', #47 ) ;
#35 = CIRCLE ( 'NONE', #170, 6.249999999999997335 ) ;
#36 = APPROVAL_DATE_TIME ( #147, #128 ) ;
#37 = DIRECTION ( 'NONE',  ( 4.275831445896958607E-31, 1.000000000000000000, 1.224646799147352961E-16 ) ) ;
#38 = FACE_OUTER_BOUND ( 'NONE', #21, .T. ) ;
#39 = AXIS2_PLACEMENT_3D ( 'NONE', #164, #81, #198 ) ;
#40 = ORIENTED_EDGE ( 'NONE', *, *, #115, .F. ) ;
#41 = DIRECTION ( 'NONE',  ( -3.491481338843133355E-15, 1.224646799147353207E-16, -1.000000000000000000 ) ) ;
#42 = ADVANCED_FACE ( 'NONE', ( #96, #101 ), #86, .T. ) ;
#43 = DIRECTION ( 'NONE',  ( -3.491481338843133355E-15, 1.224646799147353207E-16, -1.000000000000000000 ) ) ;
#44 = CARTESIAN_POINT ( 'NONE',  ( 3.526396152231565067E-13, 6.249999999999992006, 101.0000000000000000 ) ) ;
#45 = APPLICATION_PROTOCOL_DEFINITION ( 'international standard', 'config_control_design', 1994, #14 ) ;
#46 = CC_DESIGN_SECURITY_CLASSIFICATION ( #159, ( #150 ) ) ;
#47 = CARTESIAN_POINT ( 'NONE',  ( 1.780655482809997885E-13, 6.249999999999992006, 51.00000000000000000 ) ) ;
#48 =( NAMED_UNIT ( * ) PLANE_ANGLE_UNIT ( ) SI_UNIT ( $, .RADIAN. ) );
#49 = EDGE_LOOP ( 'NONE', ( #144 ) ) ;
#50 = DATE_TIME_ROLE ( 'classification_date' ) ;
#51 = DIRECTION ( 'NONE',  ( 3.491481338843133355E-15, -1.224646799147353207E-16, 1.000000000000000000 ) ) ;
#52 = FACE_BOUND ( 'NONE', #148, .T. ) ;
#53 = AXIS2_PLACEMENT_3D ( 'NONE', #27, #169, #25 ) ;
#54 = CYLINDRICAL_SURFACE ( 'NONE', #53, 6.250000000000000000 ) ;
#55 = DIRECTION ( 'NONE',  ( 3.491481338843133355E-15, -1.224646799147353207E-16, 1.000000000000000000 ) ) ;
#56 = DATE_AND_TIME ( #156, #121 ) ;
#57 = APPLICATION_CONTEXT ( 'configuration controlled 3d designs of mechanical parts and assemblies' ) ;
#58 = PERSON_AND_ORGANIZATION ( #140, #18 ) ;
#59 = CC_DESIGN_APPROVAL ( #102, ( #150 ) ) ;
#60 = APPROVAL_STATUS ( 'not_yet_approved' ) ;
#61 = CLOSED_SHELL ( 'NONE', ( #124, #42, #186 ) ) ;
#62 = PERSON_AND_ORGANIZATION_ROLE ( 'design_owner' ) ;
#63 = CC_DESIGN_PERSON_AND_ORGANIZATION_ASSIGNMENT ( #181, #179, ( #159 ) ) ;
#64 = ORIENTED_EDGE ( 'NONE', *, *, #22, .T. ) ;
#65 = CC_DESIGN_APPROVAL ( #128, ( #159 ) ) ;
#66 = DIRECTION ( 'NONE',  ( -3.491481338843133355E-15, 1.224646799147353207E-16, -1.000000000000000000 ) ) ;
#67 = ADVANCED_FACE ( 'NONE', ( #187, #52 ), #11, .T. ) ;
#68 = PRODUCT_DEFINITION_SHAPE ( 'NONE', 'NONE',  #110 ) ;
#69 = MANIFOLD_SOLID_BREP ( 'Corps-Déplacer/Copier1[2]', #61 ) ;
#70 = MANIFOLD_SOLID_BREP ( 'Corps-Déplacer/Copier1[1]', #28 ) ;
#71 = DIRECTION ( 'NONE',  ( -3.491481338843133355E-15, 1.224646799147353207E-16, -1.000000000000000000 ) ) ;
#72 = FACE_OUTER_BOUND ( 'NONE', #119, .T. ) ;
#73 = CIRCLE ( 'NONE', #194, 6.250000000000003553 ) ;
#74 = DIRECTION ( 'NONE',  ( 3.491481338843133355E-15, -1.224646799147353207E-16, 1.000000000000000000 ) ) ;
#75 = COORDINATED_UNIVERSAL_TIME_OFFSET ( 1, 0, .AHEAD. ) ;
#76 = ORIENTED_EDGE ( 'NONE', *, *, #115, .T. ) ;
#77 = CIRCLE ( 'NONE', #100, 6.249999999999997335 ) ;
#78 = CARTESIAN_POINT ( 'NONE',  ( 0.0000000000000000000, 0.0000000000000000000, 0.0000000000000000000 ) ) ;
#79 = ADVANCED_FACE ( 'NONE', ( #85 ), #131, .F. ) ;
#80 = PERSON_AND_ORGANIZATION ( #140, #18 ) ;
#81 = DIRECTION ( 'NONE',  ( -3.491481338843133355E-15, 1.224646799147353207E-16, -1.000000000000000000 ) ) ;
#82 = CARTESIAN_POINT ( 'NONE',  ( 3.561310965619995770E-13, -1.249139735130300089E-14, 102.0000000000000000 ) ) ;
#83 = DIRECTION ( 'NONE',  ( 4.275831445896958607E-31, 1.000000000000000000, 1.224646799147353207E-16 ) ) ;
#84 = AXIS2_PLACEMENT_3D ( 'NONE', #95, #66, #37 ) ;
#85 = FACE_OUTER_BOUND ( 'NONE', #175, .T. ) ;
#86 = CYLINDRICAL_SURFACE ( 'NONE', #84, 6.249999999999995559 ) ;
#87 = DIRECTION ( 'NONE',  ( 1.000000000000000000, 0.0000000000000000000, 0.0000000000000000000 ) ) ;
#88 = APPROVAL_ROLE ( '' ) ;
#89 = CC_DESIGN_PERSON_AND_ORGANIZATION_ASSIGNMENT ( #189, #62, ( #180 ) ) ;
#90 = CARTESIAN_POINT ( 'NONE',  ( 3.526396152231565067E-13, -1.236893267138826732E-14, 101.0000000000000000 ) ) ;
#91 = APPROVAL_DATE_TIME ( #178, #102 ) ;
#92 = SHAPE_DEFINITION_REPRESENTATION ( #68, #19 ) ;
#93 = COORDINATED_UNIVERSAL_TIME_OFFSET ( 1, 0, .AHEAD. ) ;
#94 = AXIS2_PLACEMENT_3D ( 'NONE', #78, #104, #87 ) ;
#95 = CARTESIAN_POINT ( 'NONE',  ( 0.0000000000000000000, 0.0000000000000000000, 0.0000000000000000000 ) ) ;
#96 = FACE_OUTER_BOUND ( 'NONE', #49, .T. ) ;
#97 = LOCAL_TIME ( 15, 34, 36.00000000000000000, #137 ) ;
#98 = CARTESIAN_POINT ( 'NONE',  ( 3.561310965619995770E-13, 3.936869429487361168E-32, 102.0000000000000000 ) ) ;
#99 = DIRECTION ( 'NONE',  ( 0.0000000000000000000, 1.000000000000000000, 0.0000000000000000000 ) ) ;
#100 = AXIS2_PLACEMENT_3D ( 'NONE', #30, #114, #10 ) ;
#101 = FACE_OUTER_BOUND ( 'NONE', #9, .T. ) ;
#102 = APPROVAL ( #139, 'UNSPECIFIED' ) ;
#103 = AXIS2_PLACEMENT_3D ( 'NONE', #98, #41, #83 ) ;
#104 = DIRECTION ( 'NONE',  ( 0.0000000000000000000, 0.0000000000000000000, 1.000000000000000000 ) ) ;
#105 = CC_DESIGN_DATE_AND_TIME_ASSIGNMENT ( #193, #50, ( #159 ) ) ;
#106 = ORIENTED_EDGE ( 'NONE', *, *, #177, .T. ) ;
#107 = CALENDAR_DATE ( 2021, 15, 10 ) ;
#108 = FACE_OUTER_BOUND ( 'NONE', #146, .T. ) ;
#109 = AXIS2_PLACEMENT_3D ( 'NONE', #203, #55, #172 ) ;
#110 = PRODUCT_DEFINITION ( 'UNKNOWN', '', #150, #143 ) ;
#111 = DIRECTION ( 'NONE',  ( -3.491481338843133355E-15, 1.224646799147353207E-16, -1.000000000000000000 ) ) ;
#112 = ORIENTED_EDGE ( 'NONE', *, *, #7, .T. ) ;
#113 = DIRECTION ( 'NONE',  ( 0.0000000000000000000, 1.000000000000000000, 0.0000000000000000000 ) ) ;
#114 = DIRECTION ( 'NONE',  ( -3.491481338843133355E-15, 1.224646799147353207E-16, -1.000000000000000000 ) ) ;
#115 = EDGE_CURVE ( 'NONE', #34, #34, #35, .T. ) ;
#116 = CARTESIAN_POINT ( 'NONE',  ( 7.942470505217654384E-15, 6.249999999999992006, 2.274813964163792779 ) ) ;
#117 =( LENGTH_UNIT ( ) NAMED_UNIT ( * ) SI_UNIT ( .MILLI., .METRE. ) );
#118 = MECHANICAL_CONTEXT ( 'NONE', #57, 'mechanical' ) ;
#119 = EDGE_LOOP ( 'NONE', ( #3 ) ) ;
#120 = PERSON_AND_ORGANIZATION_ROLE ( 'creator' ) ;
#121 = LOCAL_TIME ( 15, 34, 36.00000000000000000, #174 ) ;
#122 = COORDINATED_UNIVERSAL_TIME_OFFSET ( 1, 0, .AHEAD. ) ;
#123 = EDGE_LOOP ( 'NONE', ( #40 ) ) ;
#124 = ADVANCED_FACE ( 'NONE', ( #5 ), #168, .T. ) ;
#125 = SECURITY_CLASSIFICATION_LEVEL ( 'unclassified' ) ;
#126 = ORIENTED_EDGE ( 'NONE', *, *, #7, .F. ) ;
#127 = APPROVAL_PERSON_ORGANIZATION ( #20, #128, #165 ) ;
#128 = APPROVAL ( #141, 'UNSPECIFIED' ) ;
#129 = APPROVAL_PERSON_ORGANIZATION ( #58, #132, #12 ) ;
#130 = ORIENTED_EDGE ( 'NONE', *, *, #195, .F. ) ;
#131 = PLANE ( 'NONE',  #103 ) ;
#132 = APPROVAL ( #60, 'UNSPECIFIED' ) ;
#133 = DIRECTION ( 'NONE',  ( -4.930380657631329915E-31, -1.000000000000000000, -1.387778780781447401E-16 ) ) ;
#134 = VERTEX_POINT ( 'NONE', #44 ) ;
#135 = CARTESIAN_POINT ( 'NONE',  ( 3.561310965619995770E-13, 5.249999999999992006, 102.0000000000000000 ) ) ;
#136 = CALENDAR_DATE ( 2021, 15, 10 ) ;
#137 = COORDINATED_UNIVERSAL_TIME_OFFSET ( 1, 0, .AHEAD. ) ;
#138 = CIRCLE ( 'NONE', #183, 6.249999999999992006 ) ;
#139 = APPROVAL_STATUS ( 'not_yet_approved' ) ;
#140 = PERSON ( 'UNSPECIFIED', 'UNSPECIFIED', 'UNSPECIFIED', ('UNSPECIFIED'), ('UNSPECIFIED'), ('UNSPECIFIED') ) ;
#141 = APPROVAL_STATUS ( 'not_yet_approved' ) ;
#142 = PERSON_AND_ORGANIZATION_ROLE ( 'design_supplier' ) ;
#143 = DESIGN_CONTEXT ( 'detailed design', #14, 'design' ) ;
#144 = ORIENTED_EDGE ( 'NONE', *, *, #22, .F. ) ;
#145 = CC_DESIGN_DATE_AND_TIME_ASSIGNMENT ( #176, #32, ( #110 ) ) ;
#146 = EDGE_LOOP ( 'NONE', ( #76 ) ) ;
#147 = DATE_AND_TIME ( #197, #155 ) ;
#148 = EDGE_LOOP ( 'NONE', ( #112 ) ) ;
#149 = ADVANCED_FACE ( 'NONE', ( #201, #38 ), #54, .T. ) ;
#150 = PRODUCT_DEFINITION_FORMATION_WITH_SPECIFIED_SOURCE ( 'ANY', '', #180, .NOT_KNOWN. ) ;
#151 = ADVANCED_FACE ( 'NONE', ( #108 ), #152, .F. ) ;
#152 = PLANE ( 'NONE',  #109 ) ;
#153 = DIRECTION ( 'NONE',  ( 4.930380657631329915E-31, 1.000000000000000000, 1.387778780781447401E-16 ) ) ;
#154 = VERTEX_POINT ( 'NONE', #158 ) ;
#155 = LOCAL_TIME ( 15, 34, 36.00000000000000000, #93 ) ;
#156 = CALENDAR_DATE ( 2021, 15, 10 ) ;
#157 = PERSON_AND_ORGANIZATION ( #140, #18 ) ;
#158 = CARTESIAN_POINT ( 'NONE',  ( 1.780655482809997885E-13, 6.249999999999992006, 51.00000000000000000 ) ) ;
#159 = SECURITY_CLASSIFICATION ( '', '', #125 ) ;
#160 = PRODUCT_RELATED_PRODUCT_CATEGORY ( 'detail', '', ( #180 ) ) ;
#161 = PERSON_AND_ORGANIZATION ( #140, #18 ) ;
#162 = UNCERTAINTY_MEASURE_WITH_UNIT (LENGTH_MEASURE( 1.000000000000000082E-05 ), #117, 'distance_accuracy_value', 'NONE');
#163 =( GEOMETRIC_REPRESENTATION_CONTEXT ( 3 ) GLOBAL_UNCERTAINTY_ASSIGNED_CONTEXT ( ( #162 ) ) GLOBAL_UNIT_ASSIGNED_CONTEXT ( ( #117, #48, #190 ) ) REPRESENTATION_CONTEXT ( 'NONE', 'WORKASPACE' ) );
#164 = CARTESIAN_POINT ( 'NONE',  ( 3.561310965619995770E-13, -1.249139735130300089E-14, 102.0000000000000000 ) ) ;
#165 = APPROVAL_ROLE ( '' ) ;
#166 = EDGE_LOOP ( 'NONE', ( #64 ) ) ;
#167 = CC_DESIGN_PERSON_AND_ORGANIZATION_ASSIGNMENT ( #157, #120, ( #110 ) ) ;
#168 = CONICAL_SURFACE ( 'NONE', #199, 6.249999999999992006, 1.221730476396026388 ) ;
#169 = DIRECTION ( 'NONE',  ( -3.491481338843133355E-15, 1.224646799147353207E-16, -1.000000000000000000 ) ) ;
#170 = AXIS2_PLACEMENT_3D ( 'NONE', #202, #71, #99 ) ;
#171 = CARTESIAN_POINT ( 'NONE',  ( 7.942470505217651228E-15, -2.785843639868889502E-16, 2.274813964163791891 ) ) ;
#172 = DIRECTION ( 'NONE',  ( -4.275831445896958607E-31, -1.000000000000000000, -1.224646799147353207E-16 ) ) ;
#173 = APPLICATION_PROTOCOL_DEFINITION ( 'international standard', 'config_control_design', 1994, #57 ) ;
#174 = COORDINATED_UNIVERSAL_TIME_OFFSET ( 1, 0, .AHEAD. ) ;
#175 = EDGE_LOOP ( 'NONE', ( #126 ) ) ;
#176 = DATE_AND_TIME ( #136, #185 ) ;
#177 = EDGE_CURVE ( 'NONE', #154, #154, #77, .T. ) ;
#178 = DATE_AND_TIME ( #107, #97 ) ;
#179 = PERSON_AND_ORGANIZATION_ROLE ( 'classification_officer' ) ;
#180 = PRODUCT ( '32641', '32641', '', ( #118 ) ) ;
#181 = PERSON_AND_ORGANIZATION ( #140, #18 ) ;
#182 = CARTESIAN_POINT ( 'NONE',  ( 1.780655482809997885E-13, 4.686749320818294351E-32, 51.00000000000000000 ) ) ;
#183 = AXIS2_PLACEMENT_3D ( 'NONE', #8, #43, #153 ) ;
#184 = CALENDAR_DATE ( 2021, 15, 10 ) ;
#185 = LOCAL_TIME ( 15, 34, 36.00000000000000000, #75 ) ;
#186 = ADVANCED_FACE ( 'NONE', ( #72 ), #196, .T. ) ;
#187 = FACE_OUTER_BOUND ( 'NONE', #15, .T. ) ;
#188 = PERSON_AND_ORGANIZATION_ROLE ( 'creator' ) ;
#189 = PERSON_AND_ORGANIZATION ( #140, #18 ) ;
#190 =( NAMED_UNIT ( * ) SI_UNIT ( $, .STERADIAN. ) SOLID_ANGLE_UNIT ( ) );
#191 = AXIS2_PLACEMENT_3D ( 'NONE', #82, #111, #113 ) ;
#192 = DIRECTION ( 'NONE',  ( 0.0000000000000000000, 1.000000000000000000, 0.0000000000000000000 ) ) ;
#193 = DATE_AND_TIME ( #184, #16 ) ;
#194 = AXIS2_PLACEMENT_3D ( 'NONE', #90, #33, #192 ) ;
#195 = EDGE_CURVE ( 'NONE', #134, #134, #73, .T. ) ;
#196 = PLANE ( 'NONE',  #24 ) ;
#197 = CALENDAR_DATE ( 2021, 15, 10 ) ;
#198 = DIRECTION ( 'NONE',  ( 0.0000000000000000000, 1.000000000000000000, 0.0000000000000000000 ) ) ;
#199 = AXIS2_PLACEMENT_3D ( 'NONE', #171, #51, #133 ) ;
#200 = CC_DESIGN_PERSON_AND_ORGANIZATION_ASSIGNMENT ( #80, #142, ( #150 ) ) ;
#201 = FACE_OUTER_BOUND ( 'NONE', #123, .T. ) ;
#202 = CARTESIAN_POINT ( 'NONE',  ( 1.780655482809997885E-13, -6.245698675651500444E-15, 51.00000000000000000 ) ) ;
#203 = CARTESIAN_POINT ( 'NONE',  ( 1.780655482809997885E-13, 4.686749320818294351E-32, 51.00000000000000000 ) ) ;
ENDSEC;
END-ISO-10303-21;
