ISO-10303-21;
HEADER;
FILE_DESCRIPTION (( 'STEP AP203' ),
    '1' );
FILE_NAME ('32639.step',
    '2021-10-15T13:34:35',
    ( '' ),
    ( '' ),
    'SwSTEP 2.0',
    'SolidWorks 2019',
    '' );
FILE_SCHEMA (( 'CONFIG_CONTROL_DESIGN' ));
ENDSEC;

DATA;
#1 = DIRECTION ( 'NONE',  ( 3.491481338843133355E-15, -1.224646799147353207E-16, 1.000000000000000000 ) ) ;
#2 = DIRECTION ( 'NONE',  ( -3.491481338843133355E-15, 1.224646799147353207E-16, -1.000000000000000000 ) ) ;
#3 = LOCAL_TIME ( 15, 34, 35.00000000000000000, #91 ) ;
#4 = CIRCLE ( 'NONE', #52, 2.100000000000000089 ) ;
#5 = ORGANIZATION ( 'UNSPECIFIED', 'UNSPECIFIED', '' ) ;
#6 = PERSON_AND_ORGANIZATION ( #67, #5 ) ;
#7 = PERSON_AND_ORGANIZATION_ROLE ( 'creator' ) ;
#8 = EDGE_LOOP ( 'NONE', ( #42 ) ) ;
#9 = SHAPE_DEFINITION_REPRESENTATION ( #148, #201 ) ;
#10 = AXIS2_PLACEMENT_3D ( 'NONE', #176, #146, #129 ) ;
#11 = DIRECTION ( 'NONE',  ( -3.491481338843133355E-15, 1.224646799147353207E-16, -1.000000000000000000 ) ) ;
#12 = FACE_OUTER_BOUND ( 'NONE', #187, .T. ) ;
#13 = PLANE ( 'NONE',  #69 ) ;
#14 = VERTEX_POINT ( 'NONE', #43 ) ;
#15 = CONICAL_SURFACE ( 'NONE', #44, 2.599999999999992095, 1.221730476396026388 ) ;
#16 = APPLICATION_PROTOCOL_DEFINITION ( 'international standard', 'config_control_design', 1994, #62 ) ;
#17 = APPLICATION_CONTEXT ( 'configuration controlled 3d designs of mechanical parts and assemblies' ) ;
#18 =( NAMED_UNIT ( * ) SI_UNIT ( $, .STERADIAN. ) SOLID_ANGLE_UNIT ( ) );
#19 = EDGE_CURVE ( 'NONE', #99, #99, #58, .T. ) ;
#20 = COORDINATED_UNIVERSAL_TIME_OFFSET ( 1, 0, .AHEAD. ) ;
#21 = PERSON_AND_ORGANIZATION ( #67, #5 ) ;
#22 = ORIENTED_EDGE ( 'NONE', *, *, #19, .F. ) ;
#23 = CIRCLE ( 'NONE', #98, 2.599999999999992095 ) ;
#24 = LOCAL_TIME ( 15, 34, 35.00000000000000000, #41 ) ;
#25 = ADVANCED_FACE ( 'NONE', ( #108 ), #171, .F. ) ;
#26 = CALENDAR_DATE ( 2021, 15, 10 ) ;
#27 = APPROVAL ( #200, 'UNSPECIFIED' ) ;
#28 = AXIS2_PLACEMENT_3D ( 'NONE', #154, #92, #73 ) ;
#29 = FACE_OUTER_BOUND ( 'NONE', #57, .T. ) ;
#30 = CYLINDRICAL_SURFACE ( 'NONE', #114, 2.599999999999993872 ) ;
#31 = DIRECTION ( 'NONE',  ( -3.491481338843133355E-15, 1.224646799147353207E-16, -1.000000000000000000 ) ) ;
#32 = CC_DESIGN_PERSON_AND_ORGANIZATION_ASSIGNMENT ( #6, #68, ( #203 ) ) ;
#33 = CARTESIAN_POINT ( 'NONE',  ( 9.077851480992146724E-14, 1.949687717460406953E-32, 26.00000000000000000 ) ) ;
#34 = CARTESIAN_POINT ( 'NONE',  ( 2.164718430082742680E-13, -7.592810154713590230E-15, 62.00000000000000000 ) ) ;
#35 = CARTESIAN_POINT ( 'NONE',  ( 0.0000000000000000000, 0.0000000000000000000, 0.0000000000000000000 ) ) ;
#36 = EDGE_CURVE ( 'NONE', #161, #161, #172, .T. ) ;
#37 = CC_DESIGN_SECURITY_CLASSIFICATION ( #101, ( #203 ) ) ;
#38 = ORIENTED_EDGE ( 'NONE', *, *, #90, .T. ) ;
#39 = PERSON_AND_ORGANIZATION ( #67, #5 ) ;
#40 = DIRECTION ( 'NONE',  ( -3.491481338843133355E-15, 1.224646799147353207E-16, -1.000000000000000000 ) ) ;
#41 = COORDINATED_UNIVERSAL_TIME_OFFSET ( 1, 0, .AHEAD. ) ;
#42 = ORIENTED_EDGE ( 'NONE', *, *, #90, .F. ) ;
#43 = CARTESIAN_POINT ( 'NONE',  ( 9.077851480992146724E-14, 2.599999999999992095, 26.00000000000000000 ) ) ;
#44 = AXIS2_PLACEMENT_3D ( 'NONE', #192, #175, #48 ) ;
#45 = DIRECTION ( 'NONE',  ( -4.275831445896958607E-31, -1.000000000000000000, -1.224646799147353207E-16 ) ) ;
#46 = VERTEX_POINT ( 'NONE', #202 ) ;
#47 = FACE_OUTER_BOUND ( 'NONE', #56, .T. ) ;
#48 = DIRECTION ( 'NONE',  ( -4.444453717816712001E-31, -1.000000000000000000, -1.251002506714047484E-16 ) ) ;
#49 = CC_DESIGN_PERSON_AND_ORGANIZATION_ASSIGNMENT ( #83, #150, ( #138 ) ) ;
#50 = MANIFOLD_SOLID_BREP ( 'Corps-Déplacer/Copier1[2]', #88 ) ;
#51 = APPLICATION_PROTOCOL_DEFINITION ( 'international standard', 'config_control_design', 1994, #17 ) ;
#52 = AXIS2_PLACEMENT_3D ( 'NONE', #65, #160, #174 ) ;
#53 = COORDINATED_UNIVERSAL_TIME_OFFSET ( 1, 0, .AHEAD. ) ;
#54 = COORDINATED_UNIVERSAL_TIME_OFFSET ( 1, 0, .AHEAD. ) ;
#55 = EDGE_LOOP ( 'NONE', ( #70 ) ) ;
#56 = EDGE_LOOP ( 'NONE', ( #136 ) ) ;
#57 = EDGE_LOOP ( 'NONE', ( #198 ) ) ;
#58 = CIRCLE ( 'NONE', #85, 2.599999999999995204 ) ;
#59 = ADVANCED_FACE ( 'NONE', ( #147, #47 ), #60, .T. ) ;
#60 = CYLINDRICAL_SURFACE ( 'NONE', #196, 2.599999999999997424 ) ;
#61 = CC_DESIGN_APPROVAL ( #127, ( #101 ) ) ;
#62 = APPLICATION_CONTEXT ( 'configuration controlled 3d designs of mechanical parts and assemblies' ) ;
#63 =( NAMED_UNIT ( * ) PLANE_ANGLE_UNIT ( ) SI_UNIT ( $, .RADIAN. ) );
#64 = FACE_OUTER_BOUND ( 'NONE', #75, .T. ) ;
#65 = CARTESIAN_POINT ( 'NONE',  ( 2.164718430082742680E-13, -7.592810154713590230E-15, 62.00000000000000000 ) ) ;
#66 = APPROVAL_STATUS ( 'not_yet_approved' ) ;
#67 = PERSON ( 'UNSPECIFIED', 'UNSPECIFIED', 'UNSPECIFIED', ('UNSPECIFIED'), ('UNSPECIFIED'), ('UNSPECIFIED') ) ;
#68 = PERSON_AND_ORGANIZATION_ROLE ( 'design_supplier' ) ;
#69 = AXIS2_PLACEMENT_3D ( 'NONE', #177, #158, #130 ) ;
#70 = ORIENTED_EDGE ( 'NONE', *, *, #102, .T. ) ;
#71 = EDGE_LOOP ( 'NONE', ( #168 ) ) ;
#72 = PERSON_AND_ORGANIZATION ( #67, #5 ) ;
#73 = DIRECTION ( 'NONE',  ( 4.275831445896958607E-31, 1.000000000000000000, 1.224646799147353207E-16 ) ) ;
#74 = DATE_AND_TIME ( #26, #156 ) ;
#75 = EDGE_LOOP ( 'NONE', ( #38 ) ) ;
#76 = CARTESIAN_POINT ( 'NONE',  ( 3.304067730170538790E-15, 2.599999999999992095, 0.9463226090921361688 ) ) ;
#77 = CARTESIAN_POINT ( 'NONE',  ( 9.077851480992146724E-14, 2.599999999999992095, 26.00000000000000000 ) ) ;
#78 =( GEOMETRIC_REPRESENTATION_CONTEXT ( 3 ) GLOBAL_UNCERTAINTY_ASSIGNED_CONTEXT ( ( #182 ) ) GLOBAL_UNIT_ASSIGNED_CONTEXT ( ( #141, #63, #18 ) ) REPRESENTATION_CONTEXT ( 'NONE', 'WORKASPACE' ) );
#79 = CARTESIAN_POINT ( 'NONE',  ( 3.304067730170538001E-15, -1.158910954185456305E-16, 0.9463226090921358358 ) ) ;
#80 = PRODUCT_RELATED_PRODUCT_CATEGORY ( 'detail', '', ( #138 ) ) ;
#81 = CIRCLE ( 'NONE', #169, 2.599999999999995204 ) ;
#82 = CC_DESIGN_APPROVAL ( #125, ( #184 ) ) ;
#83 = PERSON_AND_ORGANIZATION ( #67, #5 ) ;
#84 = CC_DESIGN_DATE_AND_TIME_ASSIGNMENT ( #123, #166, ( #101 ) ) ;
#85 = AXIS2_PLACEMENT_3D ( 'NONE', #185, #40, #109 ) ;
#86 = CC_DESIGN_APPROVAL ( #27, ( #203 ) ) ;
#87 = APPROVAL_DATE_TIME ( #188, #27 ) ;
#88 = CLOSED_SHELL ( 'NONE', ( #159, #149, #119 ) ) ;
#89 = EDGE_LOOP ( 'NONE', ( #121 ) ) ;
#90 = EDGE_CURVE ( 'NONE', #14, #14, #81, .T. ) ;
#91 = COORDINATED_UNIVERSAL_TIME_OFFSET ( 1, 0, .AHEAD. ) ;
#92 = DIRECTION ( 'NONE',  ( -3.491481338843133355E-15, 1.224646799147353207E-16, -1.000000000000000000 ) ) ;
#93 = PERSON_AND_ORGANIZATION_ROLE ( 'creator' ) ;
#94 = AXIS2_PLACEMENT_3D ( 'NONE', #35, #118, #104 ) ;
#95 = FACE_OUTER_BOUND ( 'NONE', #71, .T. ) ;
#96 = FACE_OUTER_BOUND ( 'NONE', #55, .T. ) ;
#97 = DIRECTION ( 'NONE',  ( 4.275831445896958607E-31, 1.000000000000000000, 1.224646799147353207E-16 ) ) ;
#98 = AXIS2_PLACEMENT_3D ( 'NONE', #79, #2, #111 ) ;
#99 = VERTEX_POINT ( 'NONE', #77 ) ;
#100 = CARTESIAN_POINT ( 'NONE',  ( 0.0000000000000000000, 0.0000000000000000000, 0.0000000000000000000 ) ) ;
#101 = SECURITY_CLASSIFICATION ( '', '', #135 ) ;
#102 = EDGE_CURVE ( 'NONE', #142, #142, #23, .T. ) ;
#103 = LOCAL_TIME ( 15, 34, 35.00000000000000000, #20 ) ;
#104 = DIRECTION ( 'NONE',  ( 1.000000000000000000, 0.0000000000000000000, 0.0000000000000000000 ) ) ;
#105 = DATE_TIME_ROLE ( 'creation_date' ) ;
#106 = ORIENTED_EDGE ( 'NONE', *, *, #36, .F. ) ;
#107 = CALENDAR_DATE ( 2021, 15, 10 ) ;
#108 = FACE_OUTER_BOUND ( 'NONE', #151, .T. ) ;
#109 = DIRECTION ( 'NONE',  ( 0.0000000000000000000, 1.000000000000000000, 0.0000000000000000000 ) ) ;
#110 = DIRECTION ( 'NONE',  ( -3.491481338843133355E-15, 1.224646799147353207E-16, -1.000000000000000000 ) ) ;
#111 = DIRECTION ( 'NONE',  ( 4.444453717816712001E-31, 1.000000000000000000, 1.251002506714047484E-16 ) ) ;
#112 = CC_DESIGN_PERSON_AND_ORGANIZATION_ASSIGNMENT ( #39, #93, ( #184 ) ) ;
#113 = DIRECTION ( 'NONE',  ( 0.0000000000000000000, 1.000000000000000000, 0.0000000000000000000 ) ) ;
#114 = AXIS2_PLACEMENT_3D ( 'NONE', #100, #31, #157 ) ;
#115 = CARTESIAN_POINT ( 'NONE',  ( 0.0000000000000000000, 0.0000000000000000000, 0.0000000000000000000 ) ) ;
#116 = MECHANICAL_CONTEXT ( 'NONE', #62, 'mechanical' ) ;
#117 = APPROVAL_PERSON_ORGANIZATION ( #72, #27, #199 ) ;
#118 = DIRECTION ( 'NONE',  ( 0.0000000000000000000, 0.0000000000000000000, 1.000000000000000000 ) ) ;
#119 = ADVANCED_FACE ( 'NONE', ( #173 ), #190, .T. ) ;
#120 = APPROVAL_DATE_TIME ( #124, #127 ) ;
#121 = ORIENTED_EDGE ( 'NONE', *, *, #137, .T. ) ;
#122 = MANIFOLD_SOLID_BREP ( 'Corps-Déplacer/Copier1[1]', #179 ) ;
#123 = DATE_AND_TIME ( #197, #103 ) ;
#124 = DATE_AND_TIME ( #170, #193 ) ;
#125 = APPROVAL ( #164, 'UNSPECIFIED' ) ;
#126 = ORIENTED_EDGE ( 'NONE', *, *, #137, .F. ) ;
#127 = APPROVAL ( #66, 'UNSPECIFIED' ) ;
#128 = CARTESIAN_POINT ( 'NONE',  ( 9.077851480992146724E-14, -3.184081677783118191E-15, 26.00000000000000000 ) ) ;
#129 = DIRECTION ( 'NONE',  ( 0.0000000000000000000, 1.000000000000000000, 0.0000000000000000000 ) ) ;
#130 = DIRECTION ( 'NONE',  ( -4.275831445896958607E-31, -1.000000000000000000, -1.224646799147353207E-16 ) ) ;
#131 = APPROVAL_PERSON_ORGANIZATION ( #178, #125, #134 ) ;
#132 = AXIS2_PLACEMENT_3D ( 'NONE', #33, #1, #45 ) ;
#133 = DESIGN_CONTEXT ( 'detailed design', #17, 'design' ) ;
#134 = APPROVAL_ROLE ( '' ) ;
#135 = SECURITY_CLASSIFICATION_LEVEL ( 'unclassified' ) ;
#136 = ORIENTED_EDGE ( 'NONE', *, *, #36, .T. ) ;
#137 = EDGE_CURVE ( 'NONE', #46, #46, #4, .T. ) ;
#138 = PRODUCT ( '32639', '32639', '', ( #116 ) ) ;
#139 = CALENDAR_DATE ( 2021, 15, 10 ) ;
#140 = EDGE_LOOP ( 'NONE', ( #22 ) ) ;
#141 =( LENGTH_UNIT ( ) NAMED_UNIT ( * ) SI_UNIT ( .MILLI., .METRE. ) );
#142 = VERTEX_POINT ( 'NONE', #76 ) ;
#143 = FACE_BOUND ( 'NONE', #89, .T. ) ;
#144 = APPROVAL_PERSON_ORGANIZATION ( #152, #127, #195 ) ;
#145 = CC_DESIGN_PERSON_AND_ORGANIZATION_ASSIGNMENT ( #167, #7, ( #203 ) ) ;
#146 = DIRECTION ( 'NONE',  ( -3.491481338843133355E-15, 1.224646799147353207E-16, -1.000000000000000000 ) ) ;
#147 = FACE_OUTER_BOUND ( 'NONE', #8, .T. ) ;
#148 = PRODUCT_DEFINITION_SHAPE ( 'NONE', 'NONE',  #184 ) ;
#149 = ADVANCED_FACE ( 'NONE', ( #29, #95 ), #30, .T. ) ;
#150 = PERSON_AND_ORGANIZATION_ROLE ( 'design_owner' ) ;
#151 = EDGE_LOOP ( 'NONE', ( #126 ) ) ;
#152 = PERSON_AND_ORGANIZATION ( #67, #5 ) ;
#153 = PERSON_AND_ORGANIZATION_ROLE ( 'classification_officer' ) ;
#154 = CARTESIAN_POINT ( 'NONE',  ( 2.164718430082742680E-13, 1.574747771794938720E-32, 62.00000000000000000 ) ) ;
#155 = CONICAL_SURFACE ( 'NONE', #180, 2.100000000000000089, 0.7853981633974473908 ) ;
#156 = LOCAL_TIME ( 15, 34, 35.00000000000000000, #53 ) ;
#157 = DIRECTION ( 'NONE',  ( 4.275831445896958607E-31, 1.000000000000000000, 1.224646799147353207E-16 ) ) ;
#158 = DIRECTION ( 'NONE',  ( 3.491481338843133355E-15, -1.224646799147353207E-16, 1.000000000000000000 ) ) ;
#159 = ADVANCED_FACE ( 'NONE', ( #96 ), #15, .T. ) ;
#160 = DIRECTION ( 'NONE',  ( -3.491481338843133355E-15, 1.224646799147353207E-16, -1.000000000000000000 ) ) ;
#161 = VERTEX_POINT ( 'NONE', #191 ) ;
#162 = DIRECTION ( 'NONE',  ( 0.0000000000000000000, 1.000000000000000000, 0.0000000000000000000 ) ) ;
#163 = ADVANCED_FACE ( 'NONE', ( #64 ), #13, .F. ) ;
#164 = APPROVAL_STATUS ( 'not_yet_approved' ) ;
#165 = APPROVAL_DATE_TIME ( #74, #125 ) ;
#166 = DATE_TIME_ROLE ( 'classification_date' ) ;
#167 = PERSON_AND_ORGANIZATION ( #67, #5 ) ;
#168 = ORIENTED_EDGE ( 'NONE', *, *, #19, .T. ) ;
#169 = AXIS2_PLACEMENT_3D ( 'NONE', #128, #110, #113 ) ;
#170 = CALENDAR_DATE ( 2021, 15, 10 ) ;
#171 = PLANE ( 'NONE',  #28 ) ;
#172 = CIRCLE ( 'NONE', #10, 2.599999999999999645 ) ;
#173 = FACE_OUTER_BOUND ( 'NONE', #140, .T. ) ;
#174 = DIRECTION ( 'NONE',  ( 0.0000000000000000000, 1.000000000000000000, 0.0000000000000000000 ) ) ;
#175 = DIRECTION ( 'NONE',  ( 3.491481338843133355E-15, -1.224646799147353207E-16, 1.000000000000000000 ) ) ;
#176 = CARTESIAN_POINT ( 'NONE',  ( 2.147261023388527077E-13, -7.531577814756222656E-15, 61.50000000000000000 ) ) ;
#177 = CARTESIAN_POINT ( 'NONE',  ( 9.077851480992146724E-14, 1.949687717460406953E-32, 26.00000000000000000 ) ) ;
#178 = PERSON_AND_ORGANIZATION ( #67, #5 ) ;
#179 = CLOSED_SHELL ( 'NONE', ( #163, #59, #181, #25 ) ) ;
#180 = AXIS2_PLACEMENT_3D ( 'NONE', #34, #189, #162 ) ;
#181 = ADVANCED_FACE ( 'NONE', ( #12, #143 ), #155, .T. ) ;
#182 = UNCERTAINTY_MEASURE_WITH_UNIT (LENGTH_MEASURE( 1.000000000000000082E-05 ), #141, 'distance_accuracy_value', 'NONE');
#183 = DATE_AND_TIME ( #139, #3 ) ;
#184 = PRODUCT_DEFINITION ( 'UNKNOWN', '', #203, #133 ) ;
#185 = CARTESIAN_POINT ( 'NONE',  ( 9.077851480992146724E-14, -3.184081677783118191E-15, 26.00000000000000000 ) ) ;
#186 = CC_DESIGN_DATE_AND_TIME_ASSIGNMENT ( #183, #105, ( #184 ) ) ;
#187 = EDGE_LOOP ( 'NONE', ( #106 ) ) ;
#188 = DATE_AND_TIME ( #107, #24 ) ;
#189 = DIRECTION ( 'NONE',  ( -3.491481338843133355E-15, 1.224646799147353207E-16, -1.000000000000000000 ) ) ;
#190 = PLANE ( 'NONE',  #132 ) ;
#191 = CARTESIAN_POINT ( 'NONE',  ( 2.147261023388527077E-13, 2.599999999999992095, 61.50000000000000000 ) ) ;
#192 = CARTESIAN_POINT ( 'NONE',  ( 3.304067730170538001E-15, -1.158910954185456305E-16, 0.9463226090921358358 ) ) ;
#193 = LOCAL_TIME ( 15, 34, 35.00000000000000000, #54 ) ;
#194 = CC_DESIGN_PERSON_AND_ORGANIZATION_ASSIGNMENT ( #21, #153, ( #101 ) ) ;
#195 = APPROVAL_ROLE ( '' ) ;
#196 = AXIS2_PLACEMENT_3D ( 'NONE', #115, #11, #97 ) ;
#197 = CALENDAR_DATE ( 2021, 15, 10 ) ;
#198 = ORIENTED_EDGE ( 'NONE', *, *, #102, .F. ) ;
#199 = APPROVAL_ROLE ( '' ) ;
#200 = APPROVAL_STATUS ( 'not_yet_approved' ) ;
#201 = ADVANCED_BREP_SHAPE_REPRESENTATION ( '32639', ( #122, #50, #94 ), #78 ) ;
#202 = CARTESIAN_POINT ( 'NONE',  ( 2.164718430082742680E-13, 2.099999999999992095, 62.00000000000000000 ) ) ;
#203 = PRODUCT_DEFINITION_FORMATION_WITH_SPECIFIED_SOURCE ( 'ANY', '', #138, .NOT_KNOWN. ) ;
ENDSEC;
END-ISO-10303-21;
