ISO-10303-21;
HEADER;
FILE_DESCRIPTION (( 'STEP AP203' ),
    '1' );
FILE_NAME ('326.step',
    '2021-09-03T07:21:58',
    ( '' ),
    ( '' ),
    'SwSTEP 2.0',
    'SolidWorks 2019',
    '' );
FILE_SCHEMA (( 'CONFIG_CONTROL_DESIGN' ));
ENDSEC;

DATA;
#1 = ORIENTED_EDGE ( 'NONE', *, *, #223, .T. ) ;
#2 = APPLICATION_PROTOCOL_DEFINITION ( 'international standard', 'config_control_design', 1994, #122 ) ;
#3 = CALENDAR_DATE ( 2021, 3, 9 ) ;
#4 = CYLINDRICAL_SURFACE ( 'NONE', #303, 3.399999999999996358 ) ;
#5 = APPROVAL ( #218, 'UNSPECIFIED' ) ;
#6 = ORIENTED_EDGE ( 'NONE', *, *, #188, .F. ) ;
#7 = DIRECTION ( 'NONE',  ( -3.491481338843133355E-15, 1.224646799147353207E-16, -1.000000000000000000 ) ) ;
#8 = CONICAL_SURFACE ( 'NONE', #259, 2.699999999999999289, 0.7853981633974439491 ) ;
#9 = CARTESIAN_POINT ( 'NONE',  ( 1.453782691604962493E-30, 3.399999999999991918, 4.163799117100991192E-16 ) ) ;
#10 = ORIENTED_EDGE ( 'NONE', *, *, #273, .T. ) ;
#11 = LINE ( 'NONE', #222, #274 ) ;
#12 = ORIENTED_EDGE ( 'NONE', *, *, #27, .T. ) ;
#13 = DIRECTION ( 'NONE',  ( -3.491481338843133355E-15, 1.224646799147353207E-16, -1.000000000000000000 ) ) ;
#14 = DIRECTION ( 'NONE',  ( -4.531599869146449666E-31, -1.000000000000000000, -1.275531967630008697E-16 ) ) ;
#15 = CARTESIAN_POINT ( 'NONE',  ( 2.583696190743918430E-13, 2.024675706593493539E-32, 74.00000000000000000 ) ) ;
#16 = VECTOR ( 'NONE', #308, 1000.000000000000000 ) ;
#17 = CARTESIAN_POINT ( 'NONE',  ( 4.762631583283604681E-14, -3.399999999999995914, 25.00000000000000000 ) ) ;
#18 = ADVANCED_FACE ( 'NONE', ( #217 ), #184, .F. ) ;
#19 = ORIENTED_EDGE ( 'NONE', *, *, #252, .T. ) ;
#20 = VECTOR ( 'NONE', #292, 1000.000000000000000 ) ;
#21 = ORIENTED_EDGE ( 'NONE', *, *, #256, .T. ) ;
#22 = EDGE_LOOP ( 'NONE', ( #151, #33, #21, #209 ) ) ;
#23 = COORDINATED_UNIVERSAL_TIME_OFFSET ( 1, 0, .AHEAD. ) ;
#24 = CARTESIAN_POINT ( 'NONE',  ( 0.0000000000000000000, 0.0000000000000000000, 0.0000000000000000000 ) ) ;
#25 = AXIS2_PLACEMENT_3D ( 'NONE', #112, #322, #191 ) ;
#26 = DIRECTION ( 'NONE',  ( -3.491481338843133355E-15, 1.224646799147353207E-16, -1.000000000000000000 ) ) ;
#27 = EDGE_CURVE ( 'NONE', #329, #187, #171, .T. ) ;
#28 = DIRECTION ( 'NONE',  ( 0.0000000000000000000, 1.000000000000000000, 0.0000000000000000000 ) ) ;
#29 = LINE ( 'NONE', #109, #61 ) ;
#30 = VERTEX_POINT ( 'NONE', #162 ) ;
#31 = CARTESIAN_POINT ( 'NONE',  ( 2.583696190743918430E-13, -9.062386313690413585E-15, 74.00000000000000000 ) ) ;
#32 = CC_DESIGN_SECURITY_CLASSIFICATION ( #108, ( #266 ) ) ;
#33 = ORIENTED_EDGE ( 'NONE', *, *, #200, .T. ) ;
#34 = DIRECTION ( 'NONE',  ( 1.798245827342160317E-15, -0.8571673007021098911, 0.5150380749100582634 ) ) ;
#35 = ORIENTED_EDGE ( 'NONE', *, *, #181, .F. ) ;
#36 = CARTESIAN_POINT ( 'NONE',  ( 8.728703347107833388E-14, 2.549591630525148628E-32, 25.00000000000000000 ) ) ;
#37 = DIRECTION ( 'NONE',  ( 3.491481338843133355E-15, -1.224646799147353207E-16, 1.000000000000000000 ) ) ;
#38 = DATE_TIME_ROLE ( 'creation_date' ) ;
#39 = CONICAL_SURFACE ( 'NONE', #251, 3.399999999999990585, 1.029744258676649649 ) ;
#40 = LINE ( 'NONE', #58, #100 ) ;
#41 =( GEOMETRIC_REPRESENTATION_CONTEXT ( 3 ) GLOBAL_UNCERTAINTY_ASSIGNED_CONTEXT ( ( #45 ) ) GLOBAL_UNIT_ASSIGNED_CONTEXT ( ( #332, #331, #123 ) ) REPRESENTATION_CONTEXT ( 'NONE', 'WORKASPACE' ) );
#42 = AXIS2_PLACEMENT_3D ( 'NONE', #263, #140, #295 ) ;
#43 = ORIENTED_EDGE ( 'NONE', *, *, #250, .T. ) ;
#44 = DIRECTION ( 'NONE',  ( 0.0000000000000000000, 1.000000000000000000, 0.0000000000000000000 ) ) ;
#45 = UNCERTAINTY_MEASURE_WITH_UNIT (LENGTH_MEASURE( 1.000000000000000082E-05 ), #332, 'distance_accuracy_value', 'NONE');
#46 = EDGE_CURVE ( 'NONE', #127, #210, #29, .T. ) ;
#47 = CIRCLE ( 'NONE', #243, 3.399999999999993250 ) ;
#48 = EDGE_LOOP ( 'NONE', ( #73, #325, #116, #264 ) ) ;
#49 = ORIENTED_EDGE ( 'NONE', *, *, #66, .T. ) ;
#50 = CC_DESIGN_PERSON_AND_ORGANIZATION_ASSIGNMENT ( #337, #177, ( #266 ) ) ;
#51 = CARTESIAN_POINT ( 'NONE',  ( 2.559255821372016181E-13, 3.399999999999990141, 73.29999999999999716 ) ) ;
#52 = AXIS2_PLACEMENT_3D ( 'NONE', #78, #180, #44 ) ;
#53 = APPROVAL_DATE_TIME ( #215, #5 ) ;
#54 = DIRECTION ( 'NONE',  ( -3.491481338843133355E-15, 1.224646799147353207E-16, -1.000000000000000000 ) ) ;
#55 = VERTEX_POINT ( 'NONE', #143 ) ;
#56 = CARTESIAN_POINT ( 'NONE',  ( 0.0000000000000000000, 0.0000000000000000000, 0.0000000000000000000 ) ) ;
#57 = DIRECTION ( 'NONE',  ( 4.531599869146449666E-31, 1.000000000000000000, 1.275531967630008697E-16 ) ) ;
#58 = CARTESIAN_POINT ( 'NONE',  ( 2.587002737101616355E-13, -2.700000000000008171, 74.00000000000000000 ) ) ;
#59 = DATE_TIME_ROLE ( 'classification_date' ) ;
#60 = CYLINDRICAL_SURFACE ( 'NONE', #25, 3.399999999999991918 ) ;
#61 = VECTOR ( 'NONE', #34, 1000.000000000000000 ) ;
#62 = CARTESIAN_POINT ( 'NONE',  ( 1.453782691604964420E-30, 3.399999999999996358, 4.163799117100996615E-16 ) ) ;
#63 = COORDINATED_UNIVERSAL_TIME_OFFSET ( 1, 0, .AHEAD. ) ;
#64 = COORDINATED_UNIVERSAL_TIME_OFFSET ( 1, 0, .AHEAD. ) ;
#65 = DATE_AND_TIME ( #247, #272 ) ;
#66 = EDGE_CURVE ( 'NONE', #153, #55, #103, .T. ) ;
#67 = DIRECTION ( 'NONE',  ( -3.491481338843133355E-15, 1.224646799147353207E-16, -1.000000000000000000 ) ) ;
#68 = CLOSED_SHELL ( 'NONE', ( #229, #298, #175, #197, #134, #18 ) ) ;
#69 = APPROVAL_STATUS ( 'not_yet_approved' ) ;
#70 = LOCAL_TIME ( 9, 21, 58.00000000000000000, #63 ) ;
#71 = VECTOR ( 'NONE', #131, 999.9999999999998863 ) ;
#72 = CC_DESIGN_APPROVAL ( #102, ( #266 ) ) ;
#73 = ORIENTED_EDGE ( 'NONE', *, *, #289, .T. ) ;
#74 = ORIENTED_EDGE ( 'NONE', *, *, #273, .F. ) ;
#75 = APPROVAL_ROLE ( '' ) ;
#76 = DIRECTION ( 'NONE',  ( -2.382254525458727330E-15, -0.7071067811865443531, -0.7071067811865506814 ) ) ;
#77 = CONICAL_SURFACE ( 'NONE', #42, 3.399999999999990585, 1.029744258676649649 ) ;
#78 = CARTESIAN_POINT ( 'NONE',  ( 2.583696190743918430E-13, -9.062386313690413585E-15, 74.00000000000000000 ) ) ;
#79 = APPLICATION_CONTEXT ( 'configuration controlled 3d designs of mechanical parts and assemblies' ) ;
#80 = ORIENTED_EDGE ( 'NONE', *, *, #188, .T. ) ;
#81 = SECURITY_CLASSIFICATION_LEVEL ( 'unclassified' ) ;
#82 = ORIENTED_EDGE ( 'NONE', *, *, #46, .F. ) ;
#83 = CIRCLE ( 'NONE', #296, 2.699999999999999289 ) ;
#84 = DATE_AND_TIME ( #276, #238 ) ;
#85 = CARTESIAN_POINT ( 'NONE',  ( 7.132838371173623527E-15, -2.501862915007736615E-16, 2.042926104693721712 ) ) ;
#86 = EDGE_CURVE ( 'NONE', #187, #179, #246, .T. ) ;
#87 = FACE_OUTER_BOUND ( 'NONE', #97, .T. ) ;
#88 = PERSON_AND_ORGANIZATION_ROLE ( 'design_owner' ) ;
#89 = CARTESIAN_POINT ( 'NONE',  ( 7.132838371173623527E-15, -2.501862915007736615E-16, 2.042926104693721712 ) ) ;
#90 = LINE ( 'NONE', #62, #326 ) ;
#91 = APPROVAL_DATE_TIME ( #268, #121 ) ;
#92 = DIRECTION ( 'NONE',  ( 0.0000000000000000000, 1.000000000000000000, 0.0000000000000000000 ) ) ;
#93 = CIRCLE ( 'NONE', #96, 3.399999999999999467 ) ;
#94 = APPROVAL_ROLE ( '' ) ;
#95 = ADVANCED_FACE ( 'NONE', ( #137 ), #39, .T. ) ;
#96 = AXIS2_PLACEMENT_3D ( 'NONE', #286, #54, #28 ) ;
#97 = EDGE_LOOP ( 'NONE', ( #74, #159, #309 ) ) ;
#98 = CYLINDRICAL_SURFACE ( 'NONE', #232, 3.399999999999996358 ) ;
#99 = EDGE_LOOP ( 'NONE', ( #278, #230 ) ) ;
#100 = VECTOR ( 'NONE', #76, 1000.000000000000000 ) ;
#101 = EDGE_LOOP ( 'NONE', ( #275, #49, #43, #106 ) ) ;
#102 = APPROVAL ( #69, 'UNSPECIFIED' ) ;
#103 = CIRCLE ( 'NONE', #147, 3.399999999999993250 ) ;
#104 = APPROVAL_PERSON_ORGANIZATION ( #312, #121, #170 ) ;
#105 = DIRECTION ( 'NONE',  ( 4.275831445896958607E-31, 1.000000000000000000, 1.224646799147353207E-16 ) ) ;
#106 = ORIENTED_EDGE ( 'NONE', *, *, #166, .F. ) ;
#107 = LINE ( 'NONE', #9, #194 ) ;
#108 = SECURITY_CLASSIFICATION ( '', '', #81 ) ;
#109 = CARTESIAN_POINT ( 'NONE',  ( 7.132838371173621949E-15, -3.399999999999991029, 2.042926104693721268 ) ) ;
#110 = DIRECTION ( 'NONE',  ( -3.491481338843133355E-15, 1.224646799147353207E-16, -1.000000000000000000 ) ) ;
#111 = EDGE_LOOP ( 'NONE', ( #240, #310 ) ) ;
#112 = CARTESIAN_POINT ( 'NONE',  ( 0.0000000000000000000, 0.0000000000000000000, 0.0000000000000000000 ) ) ;
#113 = CARTESIAN_POINT ( 'NONE',  ( 2.583696190743918430E-13, -9.062386313690413585E-15, 74.00000000000000000 ) ) ;
#114 = PERSON_AND_ORGANIZATION ( #305, #158 ) ;
#115 = CC_DESIGN_PERSON_AND_ORGANIZATION_ASSIGNMENT ( #258, #128, ( #266 ) ) ;
#116 = ORIENTED_EDGE ( 'NONE', *, *, #27, .F. ) ;
#117 = CARTESIAN_POINT ( 'NONE',  ( 2.583696190743918430E-13, -9.062386313690413585E-15, 74.00000000000000000 ) ) ;
#118 = AXIS2_PLACEMENT_3D ( 'NONE', #36, #119, #270 ) ;
#119 = DIRECTION ( 'NONE',  ( 3.491481338843133355E-15, -1.224646799147353207E-16, 1.000000000000000000 ) ) ;
#120 = CYLINDRICAL_SURFACE ( 'NONE', #271, 3.399999999999991918 ) ;
#121 = APPROVAL ( #285, 'UNSPECIFIED' ) ;
#122 = APPLICATION_CONTEXT ( 'configuration controlled 3d designs of mechanical parts and assemblies' ) ;
#123 =( NAMED_UNIT ( * ) SI_UNIT ( $, .STERADIAN. ) SOLID_ANGLE_UNIT ( ) );
#124 = CARTESIAN_POINT ( 'NONE',  ( 7.549218282883722399E-15, 3.399999999999990141, 2.042926104693722156 ) ) ;
#125 = EDGE_CURVE ( 'NONE', #206, #30, #83, .T. ) ;
#126 = CIRCLE ( 'NONE', #132, 3.399999999999993250 ) ;
#127 = VERTEX_POINT ( 'NONE', #299 ) ;
#128 = PERSON_AND_ORGANIZATION_ROLE ( 'creator' ) ;
#129 = PRODUCT_RELATED_PRODUCT_CATEGORY ( 'detail', '', ( #293 ) ) ;
#130 = ORIENTED_EDGE ( 'NONE', *, *, #86, .T. ) ;
#131 = DIRECTION ( 'NONE',  ( 1.903218546456022717E-15, 0.8571673007021097801, 0.5150380749100585964 ) ) ;
#132 = AXIS2_PLACEMENT_3D ( 'NONE', #205, #174, #201 ) ;
#133 = CARTESIAN_POINT ( 'NONE',  ( 8.728703347107833388E-14, -3.061616997868383043E-15, 25.00000000000000000 ) ) ;
#134 = ADVANCED_FACE ( 'NONE', ( #145 ), #8, .T. ) ;
#135 = DIRECTION ( 'NONE',  ( -3.491481338843133355E-15, 1.224646799147353207E-16, -1.000000000000000000 ) ) ;
#136 = CARTESIAN_POINT ( 'NONE',  ( 7.549218282883722399E-15, 3.399999999999990141, 2.042926104693722156 ) ) ;
#137 = FACE_OUTER_BOUND ( 'NONE', #244, .T. ) ;
#138 = PRODUCT_DEFINITION_SHAPE ( 'NONE', 'NONE',  #269 ) ;
#139 = COORDINATED_UNIVERSAL_TIME_OFFSET ( 1, 0, .AHEAD. ) ;
#140 = DIRECTION ( 'NONE',  ( 3.491481338843133355E-15, -1.224646799147353207E-16, 1.000000000000000000 ) ) ;
#141 = ORIENTED_EDGE ( 'NONE', *, *, #333, .T. ) ;
#142 = CC_DESIGN_DATE_AND_TIME_ASSIGNMENT ( #320, #59, ( #108 ) ) ;
#143 = CARTESIAN_POINT ( 'NONE',  ( 8.728703347107833388E-14, 3.399999999999990141, 25.00000000000000000 ) ) ;
#144 = CARTESIAN_POINT ( 'NONE',  ( 1.720226877158500591E-13, -3.399999999999996358, 25.00000000000000000 ) ) ;
#145 = FACE_OUTER_BOUND ( 'NONE', #176, .T. ) ;
#146 = CARTESIAN_POINT ( 'NONE',  ( 2.559255821372016181E-13, -8.976661037750097719E-15, 73.29999999999999716 ) ) ;
#147 = AXIS2_PLACEMENT_3D ( 'NONE', #319, #221, #316 ) ;
#148 = DESIGN_CONTEXT ( 'detailed design', #122, 'design' ) ;
#149 = AXIS2_PLACEMENT_3D ( 'NONE', #31, #262, #164 ) ;
#150 = APPROVAL_PERSON_ORGANIZATION ( #114, #5, #94 ) ;
#151 = ORIENTED_EDGE ( 'NONE', *, *, #86, .F. ) ;
#152 = ORIENTED_EDGE ( 'NONE', *, *, #200, .F. ) ;
#153 = VERTEX_POINT ( 'NONE', #17 ) ;
#154 = DIRECTION ( 'NONE',  ( 0.0000000000000000000, 1.000000000000000000, 0.0000000000000000000 ) ) ;
#155 = ADVANCED_FACE ( 'NONE', ( #228 ), #120, .T. ) ;
#156 = CARTESIAN_POINT ( 'NONE',  ( 8.728703347107833388E-14, -3.061616997868383043E-15, 25.00000000000000000 ) ) ;
#157 = CONICAL_SURFACE ( 'NONE', #149, 2.699999999999999289, 0.7853981633974439491 ) ;
#158 = ORGANIZATION ( 'UNSPECIFIED', 'UNSPECIFIED', '' ) ;
#159 = ORIENTED_EDGE ( 'NONE', *, *, #46, .T. ) ;
#160 = DIRECTION ( 'NONE',  ( -4.275831445896958607E-31, -1.000000000000000000, -1.224646799147353207E-16 ) ) ;
#161 = MANIFOLD_SOLID_BREP ( 'Corps-Déplacer/Copier1[2]', #301 ) ;
#162 = CARTESIAN_POINT ( 'NONE',  ( 2.583696190743918430E-13, 2.699999999999989964, 74.00000000000000000 ) ) ;
#163 = EDGE_LOOP ( 'NONE', ( #12, #130, #6, #304 ) ) ;
#164 = DIRECTION ( 'NONE',  ( 0.0000000000000000000, 1.000000000000000000, 0.0000000000000000000 ) ) ;
#165 = ORIENTED_EDGE ( 'NONE', *, *, #336, .T. ) ;
#166 = EDGE_CURVE ( 'NONE', #210, #212, #330, .T. ) ;
#167 = AXIS2_PLACEMENT_3D ( 'NONE', #15, #135, #225 ) ;
#168 = CARTESIAN_POINT ( 'NONE',  ( 7.132838371173621949E-15, -3.399999999999991029, 2.042926104693721268 ) ) ;
#169 = DIRECTION ( 'NONE',  ( -3.491481338843133355E-15, 1.224646799147353207E-16, -1.000000000000000000 ) ) ;
#170 = APPROVAL_ROLE ( '' ) ;
#171 = CIRCLE ( 'NONE', #226, 3.399999999999999467 ) ;
#172 = LOCAL_TIME ( 9, 21, 58.00000000000000000, #64 ) ;
#173 = COORDINATED_UNIVERSAL_TIME_OFFSET ( 1, 0, .AHEAD. ) ;
#174 = DIRECTION ( 'NONE',  ( -3.491481338843133355E-15, 1.224646799147353207E-16, -1.000000000000000000 ) ) ;
#175 = ADVANCED_FACE ( 'NONE', ( #196 ), #195, .F. ) ;
#176 = EDGE_LOOP ( 'NONE', ( #35, #207, #306, #152 ) ) ;
#177 = PERSON_AND_ORGANIZATION_ROLE ( 'design_supplier' ) ;
#178 = CIRCLE ( 'NONE', #220, 3.399999999999993250 ) ;
#179 = VERTEX_POINT ( 'NONE', #144 ) ;
#180 = DIRECTION ( 'NONE',  ( -3.491481338843133355E-15, 1.224646799147353207E-16, -1.000000000000000000 ) ) ;
#181 = EDGE_CURVE ( 'NONE', #206, #187, #40, .T. ) ;
#182 = DIRECTION ( 'NONE',  ( 4.275831445896958607E-31, 1.000000000000000000, 1.224646799147353207E-16 ) ) ;
#183 = DIRECTION ( 'NONE',  ( 0.0000000000000000000, 0.0000000000000000000, 1.000000000000000000 ) ) ;
#184 = PLANE ( 'NONE',  #167 ) ;
#185 = CARTESIAN_POINT ( 'NONE',  ( 8.728703347107833388E-14, 2.549591630525148628E-32, 25.00000000000000000 ) ) ;
#186 = CARTESIAN_POINT ( 'NONE',  ( 4.163799117100981824E-16, -3.399999999999996358, -4.163799117101010913E-16 ) ) ;
#187 = VERTEX_POINT ( 'NONE', #208 ) ;
#188 = EDGE_CURVE ( 'NONE', #192, #179, #47, .T. ) ;
#189 = PLANE ( 'NONE',  #287 ) ;
#190 = CARTESIAN_POINT ( 'NONE',  ( 7.132838371173623527E-15, -2.501862915007736615E-16, 2.042926104693721712 ) ) ;
#191 = DIRECTION ( 'NONE',  ( 4.275831445896958607E-31, 1.000000000000000000, 1.224646799147353207E-16 ) ) ;
#192 = VERTEX_POINT ( 'NONE', #257 ) ;
#193 = CALENDAR_DATE ( 2021, 3, 9 ) ;
#194 = VECTOR ( 'NONE', #110, 1000.000000000000000 ) ;
#195 = PLANE ( 'NONE',  #118 ) ;
#196 = FACE_OUTER_BOUND ( 'NONE', #307, .T. ) ;
#197 = ADVANCED_FACE ( 'NONE', ( #237 ), #4, .T. ) ;
#198 = DIRECTION ( 'NONE',  ( 0.0000000000000000000, 1.000000000000000000, 0.0000000000000000000 ) ) ;
#199 = AXIS2_PLACEMENT_3D ( 'NONE', #190, #169, #267 ) ;
#200 = EDGE_CURVE ( 'NONE', #187, #329, #93, .T. ) ;
#201 = DIRECTION ( 'NONE',  ( 0.0000000000000000000, 1.000000000000000000, 0.0000000000000000000 ) ) ;
#202 = ORIENTED_EDGE ( 'NONE', *, *, #250, .F. ) ;
#203 = CIRCLE ( 'NONE', #52, 2.699999999999999289 ) ;
#204 = LOCAL_TIME ( 9, 21, 58.00000000000000000, #23 ) ;
#205 = CARTESIAN_POINT ( 'NONE',  ( 8.728703347107833388E-14, -3.061616997868383043E-15, 25.00000000000000000 ) ) ;
#206 = VERTEX_POINT ( 'NONE', #224 ) ;
#207 = ORIENTED_EDGE ( 'NONE', *, *, #125, .T. ) ;
#208 = CARTESIAN_POINT ( 'NONE',  ( 1.720226877158499329E-13, -3.400000000000008349, 73.29999999999999716 ) ) ;
#209 = ORIENTED_EDGE ( 'NONE', *, *, #333, .F. ) ;
#210 = VERTEX_POINT ( 'NONE', #168 ) ;
#211 = APPROVAL_PERSON_ORGANIZATION ( #300, #102, #75 ) ;
#212 = VERTEX_POINT ( 'NONE', #136 ) ;
#213 = CC_DESIGN_DATE_AND_TIME_ASSIGNMENT ( #65, #38, ( #269 ) ) ;
#214 = PERSON_AND_ORGANIZATION ( #305, #158 ) ;
#215 = DATE_AND_TIME ( #3, #172 ) ;
#216 = CARTESIAN_POINT ( 'NONE',  ( 0.0000000000000000000, 0.0000000000000000000, 0.0000000000000000000 ) ) ;
#217 = FACE_OUTER_BOUND ( 'NONE', #111, .T. ) ;
#218 = APPROVAL_STATUS ( 'not_yet_approved' ) ;
#219 = FACE_OUTER_BOUND ( 'NONE', #48, .T. ) ;
#220 = AXIS2_PLACEMENT_3D ( 'NONE', #156, #26, #241 ) ;
#221 = DIRECTION ( 'NONE',  ( -3.491481338843133355E-15, 1.224646799147353207E-16, -1.000000000000000000 ) ) ;
#222 = CARTESIAN_POINT ( 'NONE',  ( 4.163799117100976893E-16, -3.399999999999991918, -4.163799117101005490E-16 ) ) ;
#223 = EDGE_CURVE ( 'NONE', #212, #210, #265, .T. ) ;
#224 = CARTESIAN_POINT ( 'NONE',  ( 2.575211178795366842E-13, -2.700000000000008171, 74.00000000000000000 ) ) ;
#225 = DIRECTION ( 'NONE',  ( 4.275831445896958607E-31, 1.000000000000000000, 1.224646799147353207E-16 ) ) ;
#226 = AXIS2_PLACEMENT_3D ( 'NONE', #146, #7, #249 ) ;
#227 = CC_DESIGN_PERSON_AND_ORGANIZATION_ASSIGNMENT ( #214, #88, ( #293 ) ) ;
#228 = FACE_OUTER_BOUND ( 'NONE', #101, .T. ) ;
#229 = ADVANCED_FACE ( 'NONE', ( #219 ), #157, .T. ) ;
#230 = ORIENTED_EDGE ( 'NONE', *, *, #66, .F. ) ;
#231 = CARTESIAN_POINT ( 'NONE',  ( 2.583696190743918430E-13, 2.699999999999989964, 74.00000000000000000 ) ) ;
#232 = AXIS2_PLACEMENT_3D ( 'NONE', #56, #67, #105 ) ;
#233 = ADVANCED_FACE ( 'NONE', ( #87 ), #77, .T. ) ;
#234 = PERSON_AND_ORGANIZATION_ROLE ( 'classification_officer' ) ;
#235 = LINE ( 'NONE', #231, #16 ) ;
#236 = ADVANCED_FACE ( 'NONE', ( #314 ), #189, .T. ) ;
#237 = FACE_OUTER_BOUND ( 'NONE', #22, .T. ) ;
#238 = LOCAL_TIME ( 9, 21, 58.00000000000000000, #173 ) ;
#239 = DIRECTION ( 'NONE',  ( 1.000000000000000000, 0.0000000000000000000, 0.0000000000000000000 ) ) ;
#240 = ORIENTED_EDGE ( 'NONE', *, *, #289, .F. ) ;
#241 = DIRECTION ( 'NONE',  ( 0.0000000000000000000, 1.000000000000000000, 0.0000000000000000000 ) ) ;
#242 = CALENDAR_DATE ( 2021, 3, 9 ) ;
#243 = AXIS2_PLACEMENT_3D ( 'NONE', #133, #311, #154 ) ;
#244 = EDGE_LOOP ( 'NONE', ( #82, #10, #1 ) ) ;
#245 = DIRECTION ( 'NONE',  ( -3.491481338843133355E-15, 1.224646799147353207E-16, -1.000000000000000000 ) ) ;
#246 = LINE ( 'NONE', #186, #20 ) ;
#247 = CALENDAR_DATE ( 2021, 3, 9 ) ;
#248 = CARTESIAN_POINT ( 'NONE',  ( 0.0000000000000000000, 0.0000000000000000000, 0.0000000000000000000 ) ) ;
#249 = DIRECTION ( 'NONE',  ( 0.0000000000000000000, 1.000000000000000000, 0.0000000000000000000 ) ) ;
#250 = EDGE_CURVE ( 'NONE', #55, #212, #107, .T. ) ;
#251 = AXIS2_PLACEMENT_3D ( 'NONE', #89, #37, #14 ) ;
#252 = EDGE_CURVE ( 'NONE', #153, #210, #11, .T. ) ;
#253 = DIRECTION ( 'NONE',  ( -3.491481338843133355E-15, 1.224646799147353207E-16, -1.000000000000000000 ) ) ;
#254 = ADVANCED_FACE ( 'NONE', ( #294 ), #60, .T. ) ;
#255 = ADVANCED_BREP_SHAPE_REPRESENTATION ( '326', ( #277, #161, #315 ), #41 ) ;
#256 = EDGE_CURVE ( 'NONE', #329, #192, #90, .T. ) ;
#257 = CARTESIAN_POINT ( 'NONE',  ( 8.728703347107833388E-14, 3.399999999999990141, 25.00000000000000000 ) ) ;
#258 = PERSON_AND_ORGANIZATION ( #305, #158 ) ;
#259 = AXIS2_PLACEMENT_3D ( 'NONE', #117, #328, #198 ) ;
#260 = SHAPE_DEFINITION_REPRESENTATION ( #138, #255 ) ;
#261 = PERSON_AND_ORGANIZATION_ROLE ( 'creator' ) ;
#262 = DIRECTION ( 'NONE',  ( -3.491481338843133355E-15, 1.224646799147353207E-16, -1.000000000000000000 ) ) ;
#263 = CARTESIAN_POINT ( 'NONE',  ( 7.132838371173623527E-15, -2.501862915007736615E-16, 2.042926104693721712 ) ) ;
#264 = ORIENTED_EDGE ( 'NONE', *, *, #282, .F. ) ;
#265 = CIRCLE ( 'NONE', #279, 3.399999999999990585 ) ;
#266 = PRODUCT_DEFINITION_FORMATION_WITH_SPECIFIED_SOURCE ( 'ANY', '', #293, .NOT_KNOWN. ) ;
#267 = DIRECTION ( 'NONE',  ( 4.531599869146449666E-31, 1.000000000000000000, 1.275531967630008697E-16 ) ) ;
#268 = DATE_AND_TIME ( #193, #70 ) ;
#269 = PRODUCT_DEFINITION ( 'UNKNOWN', '', #266, #148 ) ;
#270 = DIRECTION ( 'NONE',  ( -4.275831445896958607E-31, -1.000000000000000000, -1.224646799147353207E-16 ) ) ;
#271 = AXIS2_PLACEMENT_3D ( 'NONE', #248, #13, #323 ) ;
#272 = LOCAL_TIME ( 9, 21, 58.00000000000000000, #139 ) ;
#273 = EDGE_CURVE ( 'NONE', #127, #212, #335, .T. ) ;
#274 = VECTOR ( 'NONE', #245, 1000.000000000000000 ) ;
#275 = ORIENTED_EDGE ( 'NONE', *, *, #252, .F. ) ;
#276 = CALENDAR_DATE ( 2021, 3, 9 ) ;
#277 = MANIFOLD_SOLID_BREP ( 'Corps-Déplacer/Copier1[1]', #68 ) ;
#278 = ORIENTED_EDGE ( 'NONE', *, *, #336, .F. ) ;
#279 = AXIS2_PLACEMENT_3D ( 'NONE', #85, #317, #57 ) ;
#280 = ORIENTED_EDGE ( 'NONE', *, *, #223, .F. ) ;
#281 = PERSON_AND_ORGANIZATION ( #305, #158 ) ;
#282 = EDGE_CURVE ( 'NONE', #30, #329, #235, .T. ) ;
#283 = FACE_OUTER_BOUND ( 'NONE', #163, .T. ) ;
#284 = EDGE_LOOP ( 'NONE', ( #165, #19, #280, #202 ) ) ;
#285 = APPROVAL_STATUS ( 'not_yet_approved' ) ;
#286 = CARTESIAN_POINT ( 'NONE',  ( 2.559255821372016181E-13, -8.976661037750097719E-15, 73.29999999999999716 ) ) ;
#287 = AXIS2_PLACEMENT_3D ( 'NONE', #185, #290, #160 ) ;
#288 = APPROVAL_DATE_TIME ( #84, #102 ) ;
#289 = EDGE_CURVE ( 'NONE', #30, #206, #203, .T. ) ;
#290 = DIRECTION ( 'NONE',  ( 3.491481338843133355E-15, -1.224646799147353207E-16, 1.000000000000000000 ) ) ;
#291 = APPLICATION_PROTOCOL_DEFINITION ( 'international standard', 'config_control_design', 1994, #79 ) ;
#292 = DIRECTION ( 'NONE',  ( -3.491481338843133355E-15, 1.224646799147353207E-16, -1.000000000000000000 ) ) ;
#293 = PRODUCT ( '326', '326', '', ( #318 ) ) ;
#294 = FACE_OUTER_BOUND ( 'NONE', #284, .T. ) ;
#295 = DIRECTION ( 'NONE',  ( -4.531599869146449666E-31, -1.000000000000000000, -1.275531967630008697E-16 ) ) ;
#296 = AXIS2_PLACEMENT_3D ( 'NONE', #113, #324, #92 ) ;
#297 = PERSON_AND_ORGANIZATION ( #305, #158 ) ;
#298 = ADVANCED_FACE ( 'NONE', ( #283 ), #98, .T. ) ;
#299 = CARTESIAN_POINT ( 'NONE',  ( 0.0000000000000000000, 0.0000000000000000000, 0.0000000000000000000 ) ) ;
#300 = PERSON_AND_ORGANIZATION ( #305, #158 ) ;
#301 = CLOSED_SHELL ( 'NONE', ( #254, #95, #233, #155, #236 ) ) ;
#302 = CC_DESIGN_PERSON_AND_ORGANIZATION_ASSIGNMENT ( #281, #234, ( #108 ) ) ;
#303 = AXIS2_PLACEMENT_3D ( 'NONE', #216, #313, #182 ) ;
#304 = ORIENTED_EDGE ( 'NONE', *, *, #256, .F. ) ;
#305 = PERSON ( 'UNSPECIFIED', 'UNSPECIFIED', 'UNSPECIFIED', ('UNSPECIFIED'), ('UNSPECIFIED'), ('UNSPECIFIED') ) ;
#306 = ORIENTED_EDGE ( 'NONE', *, *, #282, .T. ) ;
#307 = EDGE_LOOP ( 'NONE', ( #80, #141 ) ) ;
#308 = DIRECTION ( 'NONE',  ( -2.468850131082275599E-15, 0.7071067811865445751, -0.7071067811865504593 ) ) ;
#309 = ORIENTED_EDGE ( 'NONE', *, *, #166, .T. ) ;
#310 = ORIENTED_EDGE ( 'NONE', *, *, #125, .F. ) ;
#311 = DIRECTION ( 'NONE',  ( -3.491481338843133355E-15, 1.224646799147353207E-16, -1.000000000000000000 ) ) ;
#312 = PERSON_AND_ORGANIZATION ( #305, #158 ) ;
#313 = DIRECTION ( 'NONE',  ( -3.491481338843133355E-15, 1.224646799147353207E-16, -1.000000000000000000 ) ) ;
#314 = FACE_OUTER_BOUND ( 'NONE', #99, .T. ) ;
#315 = AXIS2_PLACEMENT_3D ( 'NONE', #24, #183, #239 ) ;
#316 = DIRECTION ( 'NONE',  ( 0.0000000000000000000, 1.000000000000000000, 0.0000000000000000000 ) ) ;
#317 = DIRECTION ( 'NONE',  ( -3.491481338843133355E-15, 1.224646799147353207E-16, -1.000000000000000000 ) ) ;
#318 = MECHANICAL_CONTEXT ( 'NONE', #79, 'mechanical' ) ;
#319 = CARTESIAN_POINT ( 'NONE',  ( 8.728703347107833388E-14, -3.061616997868383043E-15, 25.00000000000000000 ) ) ;
#320 = DATE_AND_TIME ( #242, #204 ) ;
#321 = CC_DESIGN_PERSON_AND_ORGANIZATION_ASSIGNMENT ( #297, #261, ( #269 ) ) ;
#322 = DIRECTION ( 'NONE',  ( -3.491481338843133355E-15, 1.224646799147353207E-16, -1.000000000000000000 ) ) ;
#323 = DIRECTION ( 'NONE',  ( 4.275831445896958607E-31, 1.000000000000000000, 1.224646799147353207E-16 ) ) ;
#324 = DIRECTION ( 'NONE',  ( -3.491481338843133355E-15, 1.224646799147353207E-16, -1.000000000000000000 ) ) ;
#325 = ORIENTED_EDGE ( 'NONE', *, *, #181, .T. ) ;
#326 = VECTOR ( 'NONE', #253, 1000.000000000000000 ) ;
#327 = CC_DESIGN_APPROVAL ( #121, ( #269 ) ) ;
#328 = DIRECTION ( 'NONE',  ( -3.491481338843133355E-15, 1.224646799147353207E-16, -1.000000000000000000 ) ) ;
#329 = VERTEX_POINT ( 'NONE', #51 ) ;
#330 = CIRCLE ( 'NONE', #199, 3.399999999999990585 ) ;
#331 =( NAMED_UNIT ( * ) PLANE_ANGLE_UNIT ( ) SI_UNIT ( $, .RADIAN. ) );
#332 =( LENGTH_UNIT ( ) NAMED_UNIT ( * ) SI_UNIT ( .MILLI., .METRE. ) );
#333 = EDGE_CURVE ( 'NONE', #179, #192, #178, .T. ) ;
#334 = CC_DESIGN_APPROVAL ( #5, ( #108 ) ) ;
#335 = LINE ( 'NONE', #124, #71 ) ;
#336 = EDGE_CURVE ( 'NONE', #55, #153, #126, .T. ) ;
#337 = PERSON_AND_ORGANIZATION ( #305, #158 ) ;
ENDSEC;
END-ISO-10303-21;
