ISO-10303-21;
HEADER;
FILE_DESCRIPTION (( 'STEP AP203' ),
    '1' );
FILE_NAME ('3255.step',
    '2021-12-06T12:58:47',
    ( '' ),
    ( '' ),
    'SwSTEP 2.0',
    'SolidWorks 2019',
    '' );
FILE_SCHEMA (( 'CONFIG_CONTROL_DESIGN' ));
ENDSEC;

DATA;
#1 = EDGE_CURVE ( 'NONE', #53, #53, #57, .T. ) ;
#2 = PERSON ( 'UNSPECIFIED', 'UNSPECIFIED', 'UNSPECIFIED', ('UNSPECIFIED'), ('UNSPECIFIED'), ('UNSPECIFIED') ) ;
#3 = SHAPE_DEFINITION_REPRESENTATION ( #69, #83 ) ;
#4 = LOCAL_TIME ( 13, 58, 47.00000000000000000, #50 ) ;
#5 = APPROVAL_ROLE ( '' ) ;
#6 = CARTESIAN_POINT ( 'NONE',  ( -3.705720586444030442E-30, 1.733055748853701760E-31, -1.061360559261039331E-15 ) ) ;
#7 = CC_DESIGN_PERSON_AND_ORGANIZATION_ASSIGNMENT ( #65, #41, ( #107 ) ) ;
#8 = PERSON_AND_ORGANIZATION ( #2, #29 ) ;
#9 = CYLINDRICAL_SURFACE ( 'NONE', #18, 25.00000000000000000 ) ;
#10 = APPROVAL_STATUS ( 'not_yet_approved' ) ;
#11 = DIRECTION ( 'NONE',  ( -3.491481338843133355E-15, 1.632862398863137281E-16, -1.000000000000000000 ) ) ;
#12 = APPROVAL ( #131, 'UNSPECIFIED' ) ;
#13 = DIRECTION ( 'NONE',  ( 1.000000000000000000, 0.0000000000000000000, 0.0000000000000000000 ) ) ;
#14 = EDGE_LOOP ( 'NONE', ( #42 ) ) ;
#15 = AXIS2_PLACEMENT_3D ( 'NONE', #101, #99, #130 ) ;
#16 = AXIS2_PLACEMENT_3D ( 'NONE', #92, #11, #115 ) ;
#17 = ORIENTED_EDGE ( 'NONE', *, *, #100, .T. ) ;
#18 = AXIS2_PLACEMENT_3D ( 'NONE', #143, #64, #154 ) ;
#19 = FACE_BOUND ( 'NONE', #88, .T. ) ;
#20 = CC_DESIGN_PERSON_AND_ORGANIZATION_ASSIGNMENT ( #75, #153, ( #25 ) ) ;
#21 = PERSON_AND_ORGANIZATION ( #2, #29 ) ;
#22 = DIRECTION ( 'NONE',  ( -3.491481338843133355E-15, 1.632862398863137281E-16, -1.000000000000000000 ) ) ;
#23 = PERSON_AND_ORGANIZATION ( #2, #29 ) ;
#24 = FACE_OUTER_BOUND ( 'NONE', #95, .T. ) ;
#25 = PRODUCT ( '3255', '3255', '', ( #151 ) ) ;
#26 = DATE_AND_TIME ( #166, #4 ) ;
#27 = DIRECTION ( 'NONE',  ( -3.491481338843133355E-15, 1.632862398863137281E-16, -1.000000000000000000 ) ) ;
#28 = PERSON_AND_ORGANIZATION_ROLE ( 'classification_officer' ) ;
#29 = ORGANIZATION ( 'UNSPECIFIED', 'UNSPECIFIED', '' ) ;
#30 = LOCAL_TIME ( 13, 58, 47.00000000000000000, #117 ) ;
#31 = CIRCLE ( 'NONE', #32, 25.00000000000000000 ) ;
#32 = AXIS2_PLACEMENT_3D ( 'NONE', #78, #152, #60 ) ;
#33 = ADVANCED_FACE ( 'NONE', ( #40, #162 ), #106, .F. ) ;
#34 = COORDINATED_UNIVERSAL_TIME_OFFSET ( 1, 0, .AHEAD. ) ;
#35 = DIRECTION ( 'NONE',  ( 5.925938290422264567E-31, 1.000000000000000000, 1.668003342285391551E-16 ) ) ;
#36 = CALENDAR_DATE ( 2021, 6, 12 ) ;
#37 = APPROVAL_PERSON_ORGANIZATION ( #39, #74, #68 ) ;
#38 = CARTESIAN_POINT ( 'NONE',  ( 2.736911063134408342E-45, 25.00000000000000000, 0.0000000000000000000 ) ) ;
#39 = PERSON_AND_ORGANIZATION ( #2, #29 ) ;
#40 = FACE_OUTER_BOUND ( 'NONE', #14, .T. ) ;
#41 = PERSON_AND_ORGANIZATION_ROLE ( 'design_supplier' ) ;
#42 = ORIENTED_EDGE ( 'NONE', *, *, #1, .T. ) ;
#43 = CC_DESIGN_PERSON_AND_ORGANIZATION_ASSIGNMENT ( #23, #63, ( #135 ) ) ;
#44 = ORIENTED_EDGE ( 'NONE', *, *, #147, .F. ) ;
#45 = ORIENTED_EDGE ( 'NONE', *, *, #160, .T. ) ;
#46 = APPLICATION_CONTEXT ( 'configuration controlled 3d designs of mechanical parts and assemblies' ) ;
#47 = CALENDAR_DATE ( 2021, 6, 12 ) ;
#48 = ADVANCED_FACE ( 'NONE', ( #62, #90 ), #150, .T. ) ;
#49 = FACE_OUTER_BOUND ( 'NONE', #110, .T. ) ;
#50 = COORDINATED_UNIVERSAL_TIME_OFFSET ( 1, 0, .AHEAD. ) ;
#51 = DIRECTION ( 'NONE',  ( -5.701108594529277266E-31, -1.000000000000000000, -1.632862398863137281E-16 ) ) ;
#52 = APPLICATION_PROTOCOL_DEFINITION ( 'international standard', 'config_control_design', 1994, #46 ) ;
#53 = VERTEX_POINT ( 'NONE', #66 ) ;
#54 = APPROVAL_ROLE ( '' ) ;
#55 = CC_DESIGN_DATE_AND_TIME_ASSIGNMENT ( #142, #105, ( #135 ) ) ;
#56 = CC_DESIGN_APPROVAL ( #97, ( #102 ) ) ;
#57 = CIRCLE ( 'NONE', #67, 6.500000000000000000 ) ;
#58 = AXIS2_PLACEMENT_3D ( 'NONE', #113, #103, #51 ) ;
#59 = CC_DESIGN_PERSON_AND_ORGANIZATION_ASSIGNMENT ( #61, #168, ( #107 ) ) ;
#60 = DIRECTION ( 'NONE',  ( 5.701108594529278142E-31, 1.000000000000000000, 1.632862398863137281E-16 ) ) ;
#61 = PERSON_AND_ORGANIZATION ( #2, #29 ) ;
#62 = FACE_BOUND ( 'NONE', #108, .T. ) ;
#63 = PERSON_AND_ORGANIZATION_ROLE ( 'creator' ) ;
#64 = DIRECTION ( 'NONE',  ( -3.491481338843133355E-15, 1.632862398863137281E-16, -1.000000000000000000 ) ) ;
#65 = PERSON_AND_ORGANIZATION ( #2, #29 ) ;
#66 = CARTESIAN_POINT ( 'NONE',  ( 0.0000000000000000000, 6.500000000000000000, 0.0000000000000000000 ) ) ;
#67 = AXIS2_PLACEMENT_3D ( 'NONE', #6, #87, #80 ) ;
#68 = APPROVAL_ROLE ( '' ) ;
#69 = PRODUCT_DEFINITION_SHAPE ( 'NONE', 'NONE',  #135 ) ;
#70 = EDGE_LOOP ( 'NONE', ( #158 ) ) ;
#71 = CC_DESIGN_APPROVAL ( #12, ( #135 ) ) ;
#72 = ORIENTED_EDGE ( 'NONE', *, *, #147, .T. ) ;
#73 = LOCAL_TIME ( 13, 58, 47.00000000000000000, #126 ) ;
#74 = APPROVAL ( #10, 'UNSPECIFIED' ) ;
#75 = PERSON_AND_ORGANIZATION ( #2, #29 ) ;
#76 = FACE_OUTER_BOUND ( 'NONE', #145, .T. ) ;
#77 = APPLICATION_CONTEXT ( 'configuration controlled 3d designs of mechanical parts and assemblies' ) ;
#78 = CARTESIAN_POINT ( 'NONE',  ( -1.425277148632319325E-29, 6.665599034052698436E-31, -4.082155997157843005E-15 ) ) ;
#79 = APPROVAL_DATE_TIME ( #156, #74 ) ;
#80 = DIRECTION ( 'NONE',  ( 5.701108594529277266E-31, 1.000000000000000000, 1.632862398863137527E-16 ) ) ;
#81 = CALENDAR_DATE ( 2021, 6, 12 ) ;
#82 = CC_DESIGN_APPROVAL ( #74, ( #107 ) ) ;
#83 = ADVANCED_BREP_SHAPE_REPRESENTATION ( '3255', ( #140, #136 ), #119 ) ;
#84 = APPROVAL_PERSON_ORGANIZATION ( #8, #12, #54 ) ;
#85 = VERTEX_POINT ( 'NONE', #38 ) ;
#86 = DATE_TIME_ROLE ( 'classification_date' ) ;
#87 = DIRECTION ( 'NONE',  ( -3.491481338843133355E-15, 1.632862398863137281E-16, -1.000000000000000000 ) ) ;
#88 = EDGE_LOOP ( 'NONE', ( #169 ) ) ;
#89 = CC_DESIGN_PERSON_AND_ORGANIZATION_ASSIGNMENT ( #144, #28, ( #102 ) ) ;
#90 = FACE_OUTER_BOUND ( 'NONE', #70, .T. ) ;
#91 = CARTESIAN_POINT ( 'NONE',  ( 0.0000000000000000000, 0.0000000000000000000, 0.0000000000000000000 ) ) ;
#92 = CARTESIAN_POINT ( 'NONE',  ( -5.273525449939581756E-30, 6.500000000000000000, -1.510397718948402133E-15 ) ) ;
#93 = SECURITY_CLASSIFICATION_LEVEL ( 'unclassified' ) ;
#94 =( NAMED_UNIT ( * ) PLANE_ANGLE_UNIT ( ) SI_UNIT ( $, .RADIAN. ) );
#95 = EDGE_LOOP ( 'NONE', ( #44 ) ) ;
#96 = ORIENTED_EDGE ( 'NONE', *, *, #160, .F. ) ;
#97 = APPROVAL ( #163, 'UNSPECIFIED' ) ;
#98 = DESIGN_CONTEXT ( 'detailed design', #46, 'design' ) ;
#99 = DIRECTION ( 'NONE',  ( -3.491481338843133355E-15, 1.632862398863137281E-16, -1.000000000000000000 ) ) ;
#100 = EDGE_CURVE ( 'NONE', #127, #127, #155, .T. ) ;
#101 = CARTESIAN_POINT ( 'NONE',  ( 0.0000000000000000000, 0.0000000000000000000, 0.0000000000000000000 ) ) ;
#102 = SECURITY_CLASSIFICATION ( '', '', #93 ) ;
#103 = DIRECTION ( 'NONE',  ( 3.491481338843133355E-15, -1.632862398863137281E-16, 1.000000000000000000 ) ) ;
#104 = AXIS2_PLACEMENT_3D ( 'NONE', #149, #27, #141 ) ;
#105 = DATE_TIME_ROLE ( 'creation_date' ) ;
#106 = CYLINDRICAL_SURFACE ( 'NONE', #15, 6.499999999999999112 ) ;
#107 = PRODUCT_DEFINITION_FORMATION_WITH_SPECIFIED_SOURCE ( 'ANY', '', #25, .NOT_KNOWN. ) ;
#108 = EDGE_LOOP ( 'NONE', ( #45 ) ) ;
#109 = EDGE_LOOP ( 'NONE', ( #96 ) ) ;
#110 = EDGE_LOOP ( 'NONE', ( #72 ) ) ;
#111 = APPROVAL_DATE_TIME ( #124, #97 ) ;
#112 = LOCAL_TIME ( 13, 58, 47.00000000000000000, #148 ) ;
#113 = CARTESIAN_POINT ( 'NONE',  ( 3.142333204958814498E-15, 6.499999999999999112, 0.8999999999999984679 ) ) ;
#114 = DATE_AND_TIME ( #81, #30 ) ;
#115 = DIRECTION ( 'NONE',  ( 5.701108594529277266E-31, 1.000000000000000000, 1.632862398863137281E-16 ) ) ;
#116 = UNCERTAINTY_MEASURE_WITH_UNIT (LENGTH_MEASURE( 1.000000000000000082E-05 ), #157, 'distance_accuracy_value', 'NONE');
#117 = COORDINATED_UNIVERSAL_TIME_OFFSET ( 1, 0, .AHEAD. ) ;
#118 = CARTESIAN_POINT ( 'NONE',  ( 3.142333204958816075E-15, -1.469576158976821827E-16, 0.8999999999999989120 ) ) ;
#119 =( GEOMETRIC_REPRESENTATION_CONTEXT ( 3 ) GLOBAL_UNCERTAINTY_ASSIGNED_CONTEXT ( ( #116 ) ) GLOBAL_UNIT_ASSIGNED_CONTEXT ( ( #157, #94, #164 ) ) REPRESENTATION_CONTEXT ( 'NONE', 'WORKASPACE' ) );
#120 = CARTESIAN_POINT ( 'NONE',  ( 3.142333204958819625E-15, 25.00000000000000000, 0.9000000000000000222 ) ) ;
#121 = CIRCLE ( 'NONE', #159, 6.499999999999999112 ) ;
#122 = CALENDAR_DATE ( 2021, 6, 12 ) ;
#123 = CC_DESIGN_DATE_AND_TIME_ASSIGNMENT ( #114, #86, ( #102 ) ) ;
#124 = DATE_AND_TIME ( #47, #112 ) ;
#125 = VERTEX_POINT ( 'NONE', #137 ) ;
#126 = COORDINATED_UNIVERSAL_TIME_OFFSET ( 1, 0, .AHEAD. ) ;
#127 = VERTEX_POINT ( 'NONE', #120 ) ;
#128 = APPLICATION_PROTOCOL_DEFINITION ( 'international standard', 'config_control_design', 1994, #77 ) ;
#129 = APPROVAL_DATE_TIME ( #26, #12 ) ;
#130 = DIRECTION ( 'NONE',  ( 5.701108594529277266E-31, 1.000000000000000000, 1.632862398863137281E-16 ) ) ;
#131 = APPROVAL_STATUS ( 'not_yet_approved' ) ;
#132 = ADVANCED_FACE ( 'NONE', ( #76, #24 ), #9, .T. ) ;
#133 = APPROVAL_PERSON_ORGANIZATION ( #21, #97, #5 ) ;
#134 = CLOSED_SHELL ( 'NONE', ( #167, #132, #48, #33 ) ) ;
#135 = PRODUCT_DEFINITION ( 'UNKNOWN', '', #107, #98 ) ;
#136 = AXIS2_PLACEMENT_3D ( 'NONE', #91, #139, #13 ) ;
#137 = CARTESIAN_POINT ( 'NONE',  ( 3.142333204958820020E-15, 6.499999999999999112, 0.9000000000000000222 ) ) ;
#138 = LOCAL_TIME ( 13, 58, 47.00000000000000000, #34 ) ;
#139 = DIRECTION ( 'NONE',  ( 0.0000000000000000000, 0.0000000000000000000, 1.000000000000000000 ) ) ;
#140 = MANIFOLD_SOLID_BREP ( 'Corps-Déplacer/Copier1', #134 ) ;
#141 = DIRECTION ( 'NONE',  ( 5.700752635386218125E-31, 1.000000000000000000, 1.647987302177966740E-16 ) ) ;
#142 = DATE_AND_TIME ( #36, #73 ) ;
#143 = CARTESIAN_POINT ( 'NONE',  ( 0.0000000000000000000, 0.0000000000000000000, 0.0000000000000000000 ) ) ;
#144 = PERSON_AND_ORGANIZATION ( #2, #29 ) ;
#145 = EDGE_LOOP ( 'NONE', ( #17 ) ) ;
#146 = PRODUCT_RELATED_PRODUCT_CATEGORY ( 'detail', '', ( #25 ) ) ;
#147 = EDGE_CURVE ( 'NONE', #85, #85, #31, .T. ) ;
#148 = COORDINATED_UNIVERSAL_TIME_OFFSET ( 1, 0, .AHEAD. ) ;
#149 = CARTESIAN_POINT ( 'NONE',  ( 3.142333204958805426E-15, -1.469576158976816650E-16, 0.8999999999999958034 ) ) ;
#150 = PLANE ( 'NONE',  #58 ) ;
#151 = MECHANICAL_CONTEXT ( 'NONE', #77, 'mechanical' ) ;
#152 = DIRECTION ( 'NONE',  ( -3.491481338843133355E-15, 1.632862398863137281E-16, -1.000000000000000000 ) ) ;
#153 = PERSON_AND_ORGANIZATION_ROLE ( 'design_owner' ) ;
#154 = DIRECTION ( 'NONE',  ( 5.701108594529278142E-31, 1.000000000000000000, 1.632862398863137281E-16 ) ) ;
#155 = CIRCLE ( 'NONE', #104, 25.00000000000000000 ) ;
#156 = DATE_AND_TIME ( #122, #138 ) ;
#157 =( LENGTH_UNIT ( ) NAMED_UNIT ( * ) SI_UNIT ( .MILLI., .METRE. ) );
#158 = ORIENTED_EDGE ( 'NONE', *, *, #100, .F. ) ;
#159 = AXIS2_PLACEMENT_3D ( 'NONE', #118, #22, #35 ) ;
#160 = EDGE_CURVE ( 'NONE', #125, #125, #121, .T. ) ;
#161 = CC_DESIGN_SECURITY_CLASSIFICATION ( #102, ( #107 ) ) ;
#162 = FACE_OUTER_BOUND ( 'NONE', #109, .T. ) ;
#163 = APPROVAL_STATUS ( 'not_yet_approved' ) ;
#164 =( NAMED_UNIT ( * ) SI_UNIT ( $, .STERADIAN. ) SOLID_ANGLE_UNIT ( ) );
#165 = PLANE ( 'NONE',  #16 ) ;
#166 = CALENDAR_DATE ( 2021, 6, 12 ) ;
#167 = ADVANCED_FACE ( 'NONE', ( #49, #19 ), #165, .T. ) ;
#168 = PERSON_AND_ORGANIZATION_ROLE ( 'creator' ) ;
#169 = ORIENTED_EDGE ( 'NONE', *, *, #1, .F. ) ;
ENDSEC;
END-ISO-10303-21;
