ISO-10303-21;
HEADER;
FILE_DESCRIPTION (( 'STEP AP203' ),
    '1' );
FILE_NAME ('3253.step',
    '2021-12-06T12:58:46',
    ( '' ),
    ( '' ),
    'SwSTEP 2.0',
    'SolidWorks 2019',
    '' );
FILE_SCHEMA (( 'CONFIG_CONTROL_DESIGN' ));
ENDSEC;

DATA;
#1 = DIRECTION ( 'NONE',  ( 4.622231866529366047E-31, 1.000000000000000000, 1.301042606982605321E-16 ) ) ;
#2 = APPLICATION_PROTOCOL_DEFINITION ( 'international standard', 'config_control_design', 1994, #74 ) ;
#3 = AXIS2_PLACEMENT_3D ( 'NONE', #81, #40, #140 ) ;
#4 = DATE_AND_TIME ( #135, #146 ) ;
#5 = FACE_OUTER_BOUND ( 'NONE', #55, .T. ) ;
#6 = CARTESIAN_POINT ( 'NONE',  ( -3.498407546642966037E-30, 5.000000000000000000, -1.001983744756925410E-15 ) ) ;
#7 = PERSON_AND_ORGANIZATION_ROLE ( 'creator' ) ;
#8 = DIRECTION ( 'NONE',  ( -3.491481338843133355E-15, 1.335978326342566933E-16, -1.000000000000000000 ) ) ;
#9 = APPROVAL_DATE_TIME ( #98, #169 ) ;
#10 = CC_DESIGN_PERSON_AND_ORGANIZATION_ASSIGNMENT ( #91, #151, ( #148 ) ) ;
#11 = CC_DESIGN_APPROVAL ( #13, ( #148 ) ) ;
#12 = ADVANCED_FACE ( 'NONE', ( #84, #158 ), #36, .T. ) ;
#13 = APPROVAL ( #79, 'UNSPECIFIED' ) ;
#14 = CARTESIAN_POINT ( 'NONE',  ( 0.0000000000000000000, 0.0000000000000000000, 0.0000000000000000000 ) ) ;
#15 = CIRCLE ( 'NONE', #105, 5.000000000000000000 ) ;
#16 = DIRECTION ( 'NONE',  ( -3.491481338843133355E-15, 1.335978326342566933E-16, -1.000000000000000000 ) ) ;
#17 = CC_DESIGN_PERSON_AND_ORGANIZATION_ASSIGNMENT ( #116, #164, ( #128 ) ) ;
#18 = LOCAL_TIME ( 13, 58, 46.00000000000000000, #57 ) ;
#19 = DIRECTION ( 'NONE',  ( 0.0000000000000000000, 0.0000000000000000000, 1.000000000000000000 ) ) ;
#20 = CALENDAR_DATE ( 2021, 6, 12 ) ;
#21 = DIRECTION ( 'NONE',  ( 4.664543395523954366E-31, 1.000000000000000000, 1.335978326342566933E-16 ) ) ;
#22 = VERTEX_POINT ( 'NONE', #43 ) ;
#23 = APPROVAL_STATUS ( 'not_yet_approved' ) ;
#24 = APPROVAL_PERSON_ORGANIZATION ( #125, #70, #64 ) ;
#25 = ORIENTED_EDGE ( 'NONE', *, *, #93, .F. ) ;
#26 = EDGE_LOOP ( 'NONE', ( #118 ) ) ;
#27 = ORIENTED_EDGE ( 'NONE', *, *, #141, .F. ) ;
#28 = CARTESIAN_POINT ( 'NONE',  ( 0.0000000000000000000, 0.0000000000000000000, 0.0000000000000000000 ) ) ;
#29 = DATE_TIME_ROLE ( 'creation_date' ) ;
#30 = APPROVAL_PERSON_ORGANIZATION ( #60, #169, #115 ) ;
#31 = CARTESIAN_POINT ( 'NONE',  ( 3.840629472727447480E-15, 5.000000000000000000, 1.100000000000000089 ) ) ;
#32 =( NAMED_UNIT ( * ) PLANE_ANGLE_UNIT ( ) SI_UNIT ( $, .RADIAN. ) );
#33 = CC_DESIGN_PERSON_AND_ORGANIZATION_ASSIGNMENT ( #111, #78, ( #120 ) ) ;
#34 = PERSON_AND_ORGANIZATION ( #106, #69 ) ;
#35 = AXIS2_PLACEMENT_3D ( 'NONE', #53, #83, #38 ) ;
#36 = CYLINDRICAL_SURFACE ( 'NONE', #35, 20.00000000000000000 ) ;
#37 = DIRECTION ( 'NONE',  ( 4.664543395523954366E-31, 1.000000000000000000, 1.335978326342566933E-16 ) ) ;
#38 = DIRECTION ( 'NONE',  ( 4.664543395523954366E-31, 1.000000000000000000, 1.335978326342566933E-16 ) ) ;
#39 = DESIGN_CONTEXT ( 'detailed design', #74, 'design' ) ;
#40 = DIRECTION ( 'NONE',  ( -3.491481338843133355E-15, 1.335978326342566933E-16, -1.000000000000000000 ) ) ;
#41 = EDGE_CURVE ( 'NONE', #46, #46, #160, .T. ) ;
#42 = AXIS2_PLACEMENT_3D ( 'NONE', #117, #127, #109 ) ;
#43 = CARTESIAN_POINT ( 'NONE',  ( 3.421138828918010427E-46, 5.000000000000000000, 0.0000000000000000000 ) ) ;
#44 = CLOSED_SHELL ( 'NONE', ( #108, #12, #155, #80 ) ) ;
#45 = PERSON_AND_ORGANIZATION ( #106, #69 ) ;
#46 = VERTEX_POINT ( 'NONE', #150 ) ;
#47 = CC_DESIGN_APPROVAL ( #70, ( #128 ) ) ;
#48 = PRODUCT_DEFINITION ( 'UNKNOWN', '', #128, #39 ) ;
#49 = PRODUCT_DEFINITION_SHAPE ( 'NONE', 'NONE',  #48 ) ;
#50 = CALENDAR_DATE ( 2021, 6, 12 ) ;
#51 = CARTESIAN_POINT ( 'NONE',  ( 1.368455531567204171E-45, 20.00000000000000000, 0.0000000000000000000 ) ) ;
#52 = APPLICATION_CONTEXT ( 'configuration controlled 3d designs of mechanical parts and assemblies' ) ;
#53 = CARTESIAN_POINT ( 'NONE',  ( 0.0000000000000000000, 0.0000000000000000000, 0.0000000000000000000 ) ) ;
#54 = ORIENTED_EDGE ( 'NONE', *, *, #104, .T. ) ;
#55 = EDGE_LOOP ( 'NONE', ( #54 ) ) ;
#56 = ORIENTED_EDGE ( 'NONE', *, *, #141, .T. ) ;
#57 = COORDINATED_UNIVERSAL_TIME_OFFSET ( 1, 0, .AHEAD. ) ;
#58 = DIRECTION ( 'NONE',  ( 4.664543395523954366E-31, 1.000000000000000000, 1.335978326342566933E-16 ) ) ;
#59 = AXIS2_PLACEMENT_3D ( 'NONE', #96, #139, #58 ) ;
#60 = PERSON_AND_ORGANIZATION ( #106, #69 ) ;
#61 = CC_DESIGN_APPROVAL ( #169, ( #48 ) ) ;
#62 = DIRECTION ( 'NONE',  ( 1.000000000000000000, 0.0000000000000000000, 0.0000000000000000000 ) ) ;
#63 = DATE_AND_TIME ( #162, #18 ) ;
#64 = APPROVAL_ROLE ( '' ) ;
#65 =( GEOMETRIC_REPRESENTATION_CONTEXT ( 3 ) GLOBAL_UNCERTAINTY_ASSIGNED_CONTEXT ( ( #138 ) ) GLOBAL_UNIT_ASSIGNED_CONTEXT ( ( #88, #32, #89 ) ) REPRESENTATION_CONTEXT ( 'NONE', 'WORKASPACE' ) );
#66 = PRODUCT_RELATED_PRODUCT_CATEGORY ( 'detail', '', ( #120 ) ) ;
#67 = DIRECTION ( 'NONE',  ( -3.491481338843133355E-15, 1.335978326342566933E-16, -1.000000000000000000 ) ) ;
#68 = ORIENTED_EDGE ( 'NONE', *, *, #104, .F. ) ;
#69 = ORGANIZATION ( 'UNSPECIFIED', 'UNSPECIFIED', '' ) ;
#70 = APPROVAL ( #23, 'UNSPECIFIED' ) ;
#71 = CC_DESIGN_PERSON_AND_ORGANIZATION_ASSIGNMENT ( #100, #110, ( #128 ) ) ;
#72 = PLANE ( 'NONE',  #42 ) ;
#73 = AXIS2_PLACEMENT_3D ( 'NONE', #136, #8, #1 ) ;
#74 = APPLICATION_CONTEXT ( 'configuration controlled 3d designs of mechanical parts and assemblies' ) ;
#75 = SHAPE_DEFINITION_REPRESENTATION ( #49, #132 ) ;
#76 = VERTEX_POINT ( 'NONE', #31 ) ;
#77 = APPROVAL_ROLE ( '' ) ;
#78 = PERSON_AND_ORGANIZATION_ROLE ( 'design_owner' ) ;
#79 = APPROVAL_STATUS ( 'not_yet_approved' ) ;
#80 = ADVANCED_FACE ( 'NONE', ( #97, #129 ), #107, .F. ) ;
#81 = CARTESIAN_POINT ( 'NONE',  ( 3.840629472727438013E-15, -1.469576158976820348E-16, 1.099999999999997424 ) ) ;
#82 = EDGE_LOOP ( 'NONE', ( #27 ) ) ;
#83 = DIRECTION ( 'NONE',  ( -3.491481338843133355E-15, 1.335978326342566933E-16, -1.000000000000000000 ) ) ;
#84 = FACE_OUTER_BOUND ( 'NONE', #165, .T. ) ;
#85 = LOCAL_TIME ( 13, 58, 46.00000000000000000, #102 ) ;
#86 = APPLICATION_PROTOCOL_DEFINITION ( 'international standard', 'config_control_design', 1994, #52 ) ;
#87 = COORDINATED_UNIVERSAL_TIME_OFFSET ( 1, 0, .AHEAD. ) ;
#88 =( LENGTH_UNIT ( ) NAMED_UNIT ( * ) SI_UNIT ( .MILLI., .METRE. ) );
#89 =( NAMED_UNIT ( * ) SI_UNIT ( $, .STERADIAN. ) SOLID_ANGLE_UNIT ( ) );
#90 = COORDINATED_UNIVERSAL_TIME_OFFSET ( 1, 0, .AHEAD. ) ;
#91 = PERSON_AND_ORGANIZATION ( #106, #69 ) ;
#92 = MANIFOLD_SOLID_BREP ( 'Corps-Déplacer/Copier1', #44 ) ;
#93 = EDGE_CURVE ( 'NONE', #22, #22, #15, .T. ) ;
#94 = LOCAL_TIME ( 13, 58, 46.00000000000000000, #87 ) ;
#95 = EDGE_LOOP ( 'NONE', ( #25 ) ) ;
#96 = CARTESIAN_POINT ( 'NONE',  ( -9.329086791047908031E-30, 3.569676176914172814E-31, -2.671956652685133768E-15 ) ) ;
#97 = FACE_OUTER_BOUND ( 'NONE', #166, .T. ) ;
#98 = DATE_AND_TIME ( #152, #85 ) ;
#99 = VERTEX_POINT ( 'NONE', #51 ) ;
#100 = PERSON_AND_ORGANIZATION ( #106, #69 ) ;
#101 = PLANE ( 'NONE',  #144 ) ;
#102 = COORDINATED_UNIVERSAL_TIME_OFFSET ( 1, 0, .AHEAD. ) ;
#103 = SECURITY_CLASSIFICATION_LEVEL ( 'unclassified' ) ;
#104 = EDGE_CURVE ( 'NONE', #99, #99, #143, .T. ) ;
#105 = AXIS2_PLACEMENT_3D ( 'NONE', #157, #16, #37 ) ;
#106 = PERSON ( 'UNSPECIFIED', 'UNSPECIFIED', 'UNSPECIFIED', ('UNSPECIFIED'), ('UNSPECIFIED'), ('UNSPECIFIED') ) ;
#107 = CYLINDRICAL_SURFACE ( 'NONE', #131, 5.000000000000000000 ) ;
#108 = ADVANCED_FACE ( 'NONE', ( #5, #123 ), #101, .T. ) ;
#109 = DIRECTION ( 'NONE',  ( -4.664543395523954366E-31, -1.000000000000000000, -1.335978326342566933E-16 ) ) ;
#110 = PERSON_AND_ORGANIZATION_ROLE ( 'creator' ) ;
#111 = PERSON_AND_ORGANIZATION ( #106, #69 ) ;
#112 = DATE_AND_TIME ( #50, #168 ) ;
#113 = APPROVAL_PERSON_ORGANIZATION ( #45, #13, #77 ) ;
#114 = CC_DESIGN_DATE_AND_TIME_ASSIGNMENT ( #112, #29, ( #48 ) ) ;
#115 = APPROVAL_ROLE ( '' ) ;
#116 = PERSON_AND_ORGANIZATION ( #106, #69 ) ;
#117 = CARTESIAN_POINT ( 'NONE',  ( 3.840629472727443535E-15, 5.000000000000000000, 1.099999999999998979 ) ) ;
#118 = ORIENTED_EDGE ( 'NONE', *, *, #41, .F. ) ;
#119 = EDGE_LOOP ( 'NONE', ( #56 ) ) ;
#120 = PRODUCT ( '3253', '3253', '', ( #124 ) ) ;
#121 = CC_DESIGN_SECURITY_CLASSIFICATION ( #148, ( #128 ) ) ;
#122 = CC_DESIGN_DATE_AND_TIME_ASSIGNMENT ( #4, #137, ( #148 ) ) ;
#123 = FACE_BOUND ( 'NONE', #95, .T. ) ;
#124 = MECHANICAL_CONTEXT ( 'NONE', #52, 'mechanical' ) ;
#125 = PERSON_AND_ORGANIZATION ( #106, #69 ) ;
#126 = DATE_AND_TIME ( #20, #94 ) ;
#127 = DIRECTION ( 'NONE',  ( 3.491481338843133355E-15, -1.335978326342566933E-16, 1.000000000000000000 ) ) ;
#128 = PRODUCT_DEFINITION_FORMATION_WITH_SPECIFIED_SOURCE ( 'ANY', '', #120, .NOT_KNOWN. ) ;
#129 = FACE_OUTER_BOUND ( 'NONE', #82, .T. ) ;
#130 = ORIENTED_EDGE ( 'NONE', *, *, #93, .T. ) ;
#131 = AXIS2_PLACEMENT_3D ( 'NONE', #14, #67, #142 ) ;
#132 = ADVANCED_BREP_SHAPE_REPRESENTATION ( '3253', ( #92, #133 ), #65 ) ;
#133 = AXIS2_PLACEMENT_3D ( 'NONE', #28, #19, #62 ) ;
#134 = APPROVAL_DATE_TIME ( #63, #70 ) ;
#135 = CALENDAR_DATE ( 2021, 6, 12 ) ;
#136 = CARTESIAN_POINT ( 'NONE',  ( 3.840629472727445113E-15, -1.469576158976823060E-16, 1.099999999999999423 ) ) ;
#137 = DATE_TIME_ROLE ( 'classification_date' ) ;
#138 = UNCERTAINTY_MEASURE_WITH_UNIT (LENGTH_MEASURE( 1.000000000000000082E-05 ), #88, 'distance_accuracy_value', 'NONE');
#139 = DIRECTION ( 'NONE',  ( -3.491481338843133355E-15, 1.335978326342566933E-16, -1.000000000000000000 ) ) ;
#140 = DIRECTION ( 'NONE',  ( 4.622231866529366047E-31, 1.000000000000000000, 1.301042606982605321E-16 ) ) ;
#141 = EDGE_CURVE ( 'NONE', #76, #76, #153, .T. ) ;
#142 = DIRECTION ( 'NONE',  ( 4.664543395523954366E-31, 1.000000000000000000, 1.335978326342566933E-16 ) ) ;
#143 = CIRCLE ( 'NONE', #59, 20.00000000000000000 ) ;
#144 = AXIS2_PLACEMENT_3D ( 'NONE', #6, #147, #21 ) ;
#145 = COORDINATED_UNIVERSAL_TIME_OFFSET ( 1, 0, .AHEAD. ) ;
#146 = LOCAL_TIME ( 13, 58, 46.00000000000000000, #145 ) ;
#147 = DIRECTION ( 'NONE',  ( -3.491481338843133355E-15, 1.335978326342566933E-16, -1.000000000000000000 ) ) ;
#148 = SECURITY_CLASSIFICATION ( '', '', #103 ) ;
#149 = APPROVAL_DATE_TIME ( #126, #13 ) ;
#150 = CARTESIAN_POINT ( 'NONE',  ( 3.840629472727447480E-15, 20.00000000000000000, 1.100000000000000089 ) ) ;
#151 = PERSON_AND_ORGANIZATION_ROLE ( 'classification_officer' ) ;
#152 = CALENDAR_DATE ( 2021, 6, 12 ) ;
#153 = CIRCLE ( 'NONE', #73, 5.000000000000000000 ) ;
#154 = CC_DESIGN_PERSON_AND_ORGANIZATION_ASSIGNMENT ( #34, #7, ( #48 ) ) ;
#155 = ADVANCED_FACE ( 'NONE', ( #163, #159 ), #72, .T. ) ;
#156 = EDGE_LOOP ( 'NONE', ( #68 ) ) ;
#157 = CARTESIAN_POINT ( 'NONE',  ( -2.332271697761977008E-30, 8.924190442285432035E-32, -6.679891631712834420E-16 ) ) ;
#158 = FACE_OUTER_BOUND ( 'NONE', #156, .T. ) ;
#159 = FACE_OUTER_BOUND ( 'NONE', #26, .T. ) ;
#160 = CIRCLE ( 'NONE', #3, 20.00000000000000000 ) ;
#161 = APPROVAL_STATUS ( 'not_yet_approved' ) ;
#162 = CALENDAR_DATE ( 2021, 6, 12 ) ;
#163 = FACE_BOUND ( 'NONE', #119, .T. ) ;
#164 = PERSON_AND_ORGANIZATION_ROLE ( 'design_supplier' ) ;
#165 = EDGE_LOOP ( 'NONE', ( #167 ) ) ;
#166 = EDGE_LOOP ( 'NONE', ( #130 ) ) ;
#167 = ORIENTED_EDGE ( 'NONE', *, *, #41, .T. ) ;
#168 = LOCAL_TIME ( 13, 58, 46.00000000000000000, #90 ) ;
#169 = APPROVAL ( #161, 'UNSPECIFIED' ) ;
ENDSEC;
END-ISO-10303-21;
