ISO-10303-21;
HEADER;
FILE_DESCRIPTION (( 'STEP AP203' ),
    '1' );
FILE_NAME ('3250.step',
    '2021-12-06T12:58:45',
    ( '' ),
    ( '' ),
    'SwSTEP 2.0',
    'SolidWorks 2019',
    '' );
FILE_SCHEMA (( 'CONFIG_CONTROL_DESIGN' ));
ENDSEC;

DATA;
#1 = DIRECTION ( 'NONE',  ( 4.275831445896958607E-31, 1.000000000000000000, 1.224646799147353207E-16 ) ) ;
#2 = ORIENTED_EDGE ( 'NONE', *, *, #118, .F. ) ;
#3 = CARTESIAN_POINT ( 'NONE',  ( 4.189777606611754504E-15, -1.469576158976821827E-16, 1.199999999999998401 ) ) ;
#4 = ORIENTED_EDGE ( 'NONE', *, *, #6, .T. ) ;
#5 = CYLINDRICAL_SURFACE ( 'NONE', #32, 12.50000000000000000 ) ;
#6 = EDGE_CURVE ( 'NONE', #160, #160, #60, .T. ) ;
#7 = CIRCLE ( 'NONE', #104, 4.000000000000000000 ) ;
#8 = CC_DESIGN_DATE_AND_TIME_ASSIGNMENT ( #28, #143, ( #164 ) ) ;
#9 = LOCAL_TIME ( 13, 58, 45.00000000000000000, #62 ) ;
#10 = SECURITY_CLASSIFICATION_LEVEL ( 'unclassified' ) ;
#11 = PERSON_AND_ORGANIZATION_ROLE ( 'creator' ) ;
#12 = APPROVAL_STATUS ( 'not_yet_approved' ) ;
#13 = EDGE_LOOP ( 'NONE', ( #111 ) ) ;
#14 = APPROVAL_PERSON_ORGANIZATION ( #168, #21, #36 ) ;
#15 = EDGE_LOOP ( 'NONE', ( #4 ) ) ;
#16 = FACE_BOUND ( 'NONE', #85, .T. ) ;
#17 = FACE_OUTER_BOUND ( 'NONE', #43, .T. ) ;
#18 = FACE_OUTER_BOUND ( 'NONE', #15, .T. ) ;
#19 = LOCAL_TIME ( 13, 58, 45.00000000000000000, #169 ) ;
#20 = ADVANCED_BREP_SHAPE_REPRESENTATION ( '3250', ( #139, #140 ), #40 ) ;
#21 = APPROVAL ( #67, 'UNSPECIFIED' ) ;
#22 = CC_DESIGN_APPROVAL ( #21, ( #164 ) ) ;
#23 = PERSON_AND_ORGANIZATION_ROLE ( 'creator' ) ;
#24 = CALENDAR_DATE ( 2021, 6, 12 ) ;
#25 = COORDINATED_UNIVERSAL_TIME_OFFSET ( 1, 0, .AHEAD. ) ;
#26 = PERSON_AND_ORGANIZATION ( #125, #138 ) ;
#27 = CC_DESIGN_PERSON_AND_ORGANIZATION_ASSIGNMENT ( #26, #80, ( #86 ) ) ;
#28 = DATE_AND_TIME ( #146, #19 ) ;
#29 = ORIENTED_EDGE ( 'NONE', *, *, #88, .F. ) ;
#30 = FACE_OUTER_BOUND ( 'NONE', #13, .T. ) ;
#31 = FACE_OUTER_BOUND ( 'NONE', #83, .T. ) ;
#32 = AXIS2_PLACEMENT_3D ( 'NONE', #68, #120, #1 ) ;
#33 = DESIGN_CONTEXT ( 'detailed design', #94, 'design' ) ;
#34 = CIRCLE ( 'NONE', #48, 12.50000000000000000 ) ;
#35 = UNCERTAINTY_MEASURE_WITH_UNIT (LENGTH_MEASURE( 1.000000000000000082E-05 ), #166, 'distance_accuracy_value', 'NONE');
#36 = APPROVAL_ROLE ( '' ) ;
#37 = DATE_AND_TIME ( #155, #9 ) ;
#38 = DIRECTION ( 'NONE',  ( 1.000000000000000000, 0.0000000000000000000, 0.0000000000000000000 ) ) ;
#39 = ADVANCED_FACE ( 'NONE', ( #30, #31 ), #110, .F. ) ;
#40 =( GEOMETRIC_REPRESENTATION_CONTEXT ( 3 ) GLOBAL_UNCERTAINTY_ASSIGNED_CONTEXT ( ( #35 ) ) GLOBAL_UNIT_ASSIGNED_CONTEXT ( ( #166, #79, #100 ) ) REPRESENTATION_CONTEXT ( 'NONE', 'WORKASPACE' ) );
#41 = PERSON_AND_ORGANIZATION ( #125, #138 ) ;
#42 = CARTESIAN_POINT ( 'NONE',  ( 4.189777606611759237E-15, 12.50000000000000000, 1.199999999999999956 ) ) ;
#43 = EDGE_LOOP ( 'NONE', ( #70 ) ) ;
#44 = CARTESIAN_POINT ( 'NONE',  ( -5.344789307371198171E-30, 1.874699728327322119E-31, -1.530808498934191521E-15 ) ) ;
#45 = DIRECTION ( 'NONE',  ( 4.275831445896958607E-31, 1.000000000000000000, 1.224646799147353207E-16 ) ) ;
#46 = FACE_BOUND ( 'NONE', #136, .T. ) ;
#47 = LOCAL_TIME ( 13, 58, 45.00000000000000000, #101 ) ;
#48 = AXIS2_PLACEMENT_3D ( 'NONE', #44, #122, #134 ) ;
#49 = DATE_AND_TIME ( #90, #159 ) ;
#50 = CC_DESIGN_PERSON_AND_ORGANIZATION_ASSIGNMENT ( #141, #11, ( #164 ) ) ;
#51 = APPROVAL_ROLE ( '' ) ;
#52 = PRODUCT ( '3250', '3250', '', ( #131 ) ) ;
#53 = CARTESIAN_POINT ( 'NONE',  ( 4.189777606611759237E-15, 4.000000000000000000, 1.199999999999999956 ) ) ;
#54 = APPROVAL_PERSON_ORGANIZATION ( #153, #59, #51 ) ;
#55 = ORIENTED_EDGE ( 'NONE', *, *, #74, .F. ) ;
#56 = EDGE_LOOP ( 'NONE', ( #55 ) ) ;
#57 = ORIENTED_EDGE ( 'NONE', *, *, #74, .T. ) ;
#58 = DIRECTION ( 'NONE',  ( -3.491481338843133355E-15, 1.224646799147353207E-16, -1.000000000000000000 ) ) ;
#59 = APPROVAL ( #76, 'UNSPECIFIED' ) ;
#60 = CIRCLE ( 'NONE', #87, 12.50000000000000000 ) ;
#61 = PERSON_AND_ORGANIZATION ( #125, #138 ) ;
#62 = COORDINATED_UNIVERSAL_TIME_OFFSET ( 1, 0, .AHEAD. ) ;
#63 = APPROVAL_ROLE ( '' ) ;
#64 = CC_DESIGN_DATE_AND_TIME_ASSIGNMENT ( #115, #78, ( #121 ) ) ;
#65 = ORIENTED_EDGE ( 'NONE', *, *, #88, .T. ) ;
#66 = APPLICATION_PROTOCOL_DEFINITION ( 'international standard', 'config_control_design', 1994, #94 ) ;
#67 = APPROVAL_STATUS ( 'not_yet_approved' ) ;
#68 = CARTESIAN_POINT ( 'NONE',  ( 0.0000000000000000000, 0.0000000000000000000, 0.0000000000000000000 ) ) ;
#69 = CC_DESIGN_APPROVAL ( #154, ( #121 ) ) ;
#70 = ORIENTED_EDGE ( 'NONE', *, *, #6, .F. ) ;
#71 = AXIS2_PLACEMENT_3D ( 'NONE', #148, #82, #151 ) ;
#72 = PLANE ( 'NONE',  #124 ) ;
#73 = PLANE ( 'NONE',  #129 ) ;
#74 = EDGE_CURVE ( 'NONE', #92, #92, #34, .T. ) ;
#75 = DIRECTION ( 'NONE',  ( -3.491481338843133355E-15, 1.224646799147353207E-16, -1.000000000000000000 ) ) ;
#76 = APPROVAL_STATUS ( 'not_yet_approved' ) ;
#77 = CARTESIAN_POINT ( 'NONE',  ( 0.0000000000000000000, 0.0000000000000000000, 0.0000000000000000000 ) ) ;
#78 = DATE_TIME_ROLE ( 'classification_date' ) ;
#79 =( NAMED_UNIT ( * ) PLANE_ANGLE_UNIT ( ) SI_UNIT ( $, .RADIAN. ) );
#80 = PERSON_AND_ORGANIZATION_ROLE ( 'design_supplier' ) ;
#81 = VERTEX_POINT ( 'NONE', #53 ) ;
#82 = DIRECTION ( 'NONE',  ( -3.491481338843133355E-15, 1.224646799147353207E-16, -1.000000000000000000 ) ) ;
#83 = EDGE_LOOP ( 'NONE', ( #29 ) ) ;
#84 = CC_DESIGN_PERSON_AND_ORGANIZATION_ASSIGNMENT ( #41, #102, ( #52 ) ) ;
#85 = EDGE_LOOP ( 'NONE', ( #2 ) ) ;
#86 = PRODUCT_DEFINITION_FORMATION_WITH_SPECIFIED_SOURCE ( 'ANY', '', #52, .NOT_KNOWN. ) ;
#87 = AXIS2_PLACEMENT_3D ( 'NONE', #3, #109, #150 ) ;
#88 = EDGE_CURVE ( 'NONE', #81, #81, #142, .T. ) ;
#89 = APPROVAL_DATE_TIME ( #37, #59 ) ;
#90 = CALENDAR_DATE ( 2021, 6, 12 ) ;
#91 = VERTEX_POINT ( 'NONE', #116 ) ;
#92 = VERTEX_POINT ( 'NONE', #147 ) ;
#93 = DIRECTION ( 'NONE',  ( 4.275831445896958607E-31, 1.000000000000000000, 1.224646799147353207E-16 ) ) ;
#94 = APPLICATION_CONTEXT ( 'configuration controlled 3d designs of mechanical parts and assemblies' ) ;
#95 = CC_DESIGN_PERSON_AND_ORGANIZATION_ASSIGNMENT ( #61, #117, ( #121 ) ) ;
#96 = CARTESIAN_POINT ( 'NONE',  ( -1.710332578358783092E-30, 5.999039130647430431E-32, -4.898587196589412829E-16 ) ) ;
#97 = CARTESIAN_POINT ( 'NONE',  ( 4.189777606611757660E-15, 4.000000000000000000, 1.199999999999999512 ) ) ;
#98 = APPROVAL_PERSON_ORGANIZATION ( #105, #154, #63 ) ;
#99 = AXIS2_PLACEMENT_3D ( 'NONE', #161, #58, #93 ) ;
#100 =( NAMED_UNIT ( * ) SI_UNIT ( $, .STERADIAN. ) SOLID_ANGLE_UNIT ( ) );
#101 = COORDINATED_UNIVERSAL_TIME_OFFSET ( 1, 0, .AHEAD. ) ;
#102 = PERSON_AND_ORGANIZATION_ROLE ( 'design_owner' ) ;
#103 = CALENDAR_DATE ( 2021, 6, 12 ) ;
#104 = AXIS2_PLACEMENT_3D ( 'NONE', #96, #75, #107 ) ;
#105 = PERSON_AND_ORGANIZATION ( #125, #138 ) ;
#106 = CC_DESIGN_APPROVAL ( #59, ( #86 ) ) ;
#107 = DIRECTION ( 'NONE',  ( 4.275831445896958607E-31, 1.000000000000000000, 1.224646799147353207E-16 ) ) ;
#108 = APPLICATION_CONTEXT ( 'configuration controlled 3d designs of mechanical parts and assemblies' ) ;
#109 = DIRECTION ( 'NONE',  ( -3.491481338843133355E-15, 1.224646799147353207E-16, -1.000000000000000000 ) ) ;
#110 = CYLINDRICAL_SURFACE ( 'NONE', #99, 4.000000000000000000 ) ;
#111 = ORIENTED_EDGE ( 'NONE', *, *, #118, .T. ) ;
#112 = ADVANCED_FACE ( 'NONE', ( #135, #16 ), #72, .T. ) ;
#113 = CLOSED_SHELL ( 'NONE', ( #112, #149, #145, #39 ) ) ;
#114 = APPLICATION_PROTOCOL_DEFINITION ( 'international standard', 'config_control_design', 1994, #108 ) ;
#115 = DATE_AND_TIME ( #24, #130 ) ;
#116 = CARTESIAN_POINT ( 'NONE',  ( 3.421138828918010427E-46, 4.000000000000000000, 0.0000000000000000000 ) ) ;
#117 = PERSON_AND_ORGANIZATION_ROLE ( 'classification_officer' ) ;
#118 = EDGE_CURVE ( 'NONE', #91, #91, #7, .T. ) ;
#119 = APPROVAL_DATE_TIME ( #49, #21 ) ;
#120 = DIRECTION ( 'NONE',  ( -3.491481338843133355E-15, 1.224646799147353207E-16, -1.000000000000000000 ) ) ;
#121 = SECURITY_CLASSIFICATION ( '', '', #10 ) ;
#122 = DIRECTION ( 'NONE',  ( -3.491481338843133355E-15, 1.224646799147353207E-16, -1.000000000000000000 ) ) ;
#123 = CARTESIAN_POINT ( 'NONE',  ( -1.817228364506207364E-30, 4.000000000000000000, -5.204748896376250699E-16 ) ) ;
#124 = AXIS2_PLACEMENT_3D ( 'NONE', #123, #163, #45 ) ;
#125 = PERSON ( 'UNSPECIFIED', 'UNSPECIFIED', 'UNSPECIFIED', ('UNSPECIFIED'), ('UNSPECIFIED'), ('UNSPECIFIED') ) ;
#126 = DIRECTION ( 'NONE',  ( -4.275831445896958607E-31, -1.000000000000000000, -1.224646799147353207E-16 ) ) ;
#127 = FACE_OUTER_BOUND ( 'NONE', #56, .T. ) ;
#128 = CC_DESIGN_PERSON_AND_ORGANIZATION_ASSIGNMENT ( #144, #23, ( #86 ) ) ;
#129 = AXIS2_PLACEMENT_3D ( 'NONE', #97, #137, #126 ) ;
#130 = LOCAL_TIME ( 13, 58, 45.00000000000000000, #133 ) ;
#131 = MECHANICAL_CONTEXT ( 'NONE', #108, 'mechanical' ) ;
#132 = PRODUCT_RELATED_PRODUCT_CATEGORY ( 'detail', '', ( #52 ) ) ;
#133 = COORDINATED_UNIVERSAL_TIME_OFFSET ( 1, 0, .AHEAD. ) ;
#134 = DIRECTION ( 'NONE',  ( 4.275831445896958607E-31, 1.000000000000000000, 1.224646799147353207E-16 ) ) ;
#135 = FACE_OUTER_BOUND ( 'NONE', #165, .T. ) ;
#136 = EDGE_LOOP ( 'NONE', ( #65 ) ) ;
#137 = DIRECTION ( 'NONE',  ( 3.491481338843133355E-15, -1.224646799147353207E-16, 1.000000000000000000 ) ) ;
#138 = ORGANIZATION ( 'UNSPECIFIED', 'UNSPECIFIED', '' ) ;
#139 = MANIFOLD_SOLID_BREP ( 'Corps-Déplacer/Copier1', #113 ) ;
#140 = AXIS2_PLACEMENT_3D ( 'NONE', #77, #157, #38 ) ;
#141 = PERSON_AND_ORGANIZATION ( #125, #138 ) ;
#142 = CIRCLE ( 'NONE', #71, 4.000000000000000000 ) ;
#143 = DATE_TIME_ROLE ( 'creation_date' ) ;
#144 = PERSON_AND_ORGANIZATION ( #125, #138 ) ;
#145 = ADVANCED_FACE ( 'NONE', ( #46, #17 ), #73, .T. ) ;
#146 = CALENDAR_DATE ( 2021, 6, 12 ) ;
#147 = CARTESIAN_POINT ( 'NONE',  ( 0.0000000000000000000, 12.50000000000000000, 0.0000000000000000000 ) ) ;
#148 = CARTESIAN_POINT ( 'NONE',  ( 4.189777606611757660E-15, -1.469576158976823306E-16, 1.199999999999999512 ) ) ;
#149 = ADVANCED_FACE ( 'NONE', ( #18, #127 ), #5, .T. ) ;
#150 = DIRECTION ( 'NONE',  ( 4.314083075427408311E-31, 1.000000000000000000, 1.214306433183764966E-16 ) ) ;
#151 = DIRECTION ( 'NONE',  ( 3.851859888774471706E-31, 1.000000000000000000, 1.084202172485504434E-16 ) ) ;
#152 = CC_DESIGN_SECURITY_CLASSIFICATION ( #121, ( #86 ) ) ;
#153 = PERSON_AND_ORGANIZATION ( #125, #138 ) ;
#154 = APPROVAL ( #12, 'UNSPECIFIED' ) ;
#155 = CALENDAR_DATE ( 2021, 6, 12 ) ;
#156 = APPROVAL_DATE_TIME ( #158, #154 ) ;
#157 = DIRECTION ( 'NONE',  ( 0.0000000000000000000, 0.0000000000000000000, 1.000000000000000000 ) ) ;
#158 = DATE_AND_TIME ( #103, #47 ) ;
#159 = LOCAL_TIME ( 13, 58, 45.00000000000000000, #25 ) ;
#160 = VERTEX_POINT ( 'NONE', #42 ) ;
#161 = CARTESIAN_POINT ( 'NONE',  ( 0.0000000000000000000, 0.0000000000000000000, 0.0000000000000000000 ) ) ;
#162 = PRODUCT_DEFINITION_SHAPE ( 'NONE', 'NONE',  #164 ) ;
#163 = DIRECTION ( 'NONE',  ( -3.491481338843133355E-15, 1.224646799147353207E-16, -1.000000000000000000 ) ) ;
#164 = PRODUCT_DEFINITION ( 'UNKNOWN', '', #86, #33 ) ;
#165 = EDGE_LOOP ( 'NONE', ( #57 ) ) ;
#166 =( LENGTH_UNIT ( ) NAMED_UNIT ( * ) SI_UNIT ( .MILLI., .METRE. ) );
#167 = SHAPE_DEFINITION_REPRESENTATION ( #162, #20 ) ;
#168 = PERSON_AND_ORGANIZATION ( #125, #138 ) ;
#169 = COORDINATED_UNIVERSAL_TIME_OFFSET ( 1, 0, .AHEAD. ) ;
ENDSEC;
END-ISO-10303-21;
