ISO-10303-21;
HEADER;
FILE_DESCRIPTION (( 'STEP AP203' ),
    '1' );
FILE_NAME ('32492.step',
    '2021-11-12T07:47:33',
    ( '' ),
    ( '' ),
    'SwSTEP 2.0',
    'SolidWorks 2019',
    '' );
FILE_SCHEMA (( 'CONFIG_CONTROL_DESIGN' ));
ENDSEC;

DATA;
#1 = FACE_OUTER_BOUND ( 'NONE', #184, .T. ) ;
#2 = CARTESIAN_POINT ( 'NONE',  ( 3.491481338843132850E-13, 5.499999999999991118, 99.99999999999998579 ) ) ;
#3 = FACE_OUTER_BOUND ( 'NONE', #34, .T. ) ;
#4 = APPROVAL_PERSON_ORGANIZATION ( #82, #116, #62 ) ;
#5 = EDGE_LOOP ( 'NONE', ( #189 ) ) ;
#6 = COORDINATED_UNIVERSAL_TIME_OFFSET ( 1, 0, .AHEAD. ) ;
#7 = PLANE ( 'NONE',  #203 ) ;
#8 = APPROVAL_DATE_TIME ( #30, #17 ) ;
#9 = DATE_TIME_ROLE ( 'classification_date' ) ;
#10 = CONICAL_SURFACE ( 'NONE', #44, 5.800000000000000711, 0.7853981633974473908 ) ;
#11 = PRODUCT_RELATED_PRODUCT_CATEGORY ( 'detail', '', ( #122 ) ) ;
#12 = AXIS2_PLACEMENT_3D ( 'NONE', #105, #179, #19 ) ;
#13 = ADVANCED_FACE ( 'NONE', ( #127, #3 ), #73, .T. ) ;
#14 = MANIFOLD_SOLID_BREP ( 'Corps-Déplacer/Copier1[2]', #100 ) ;
#15 = CIRCLE ( 'NONE', #152, 5.999999999999989342 ) ;
#16 = ORIENTED_EDGE ( 'NONE', *, *, #219, .T. ) ;
#17 = APPROVAL ( #46, 'UNSPECIFIED' ) ;
#18 = CARTESIAN_POINT ( 'NONE',  ( 3.491481338843133355E-13, 4.124339402320093095E-32, 100.0000000000000000 ) ) ;
#19 = DIRECTION ( 'NONE',  ( 0.0000000000000000000, 1.000000000000000000, 0.0000000000000000000 ) ) ;
#20 = FACE_OUTER_BOUND ( 'NONE', #33, .T. ) ;
#21 = CC_DESIGN_SECURITY_CLASSIFICATION ( #129, ( #115 ) ) ;
#22 = CC_DESIGN_PERSON_AND_ORGANIZATION_ASSIGNMENT ( #86, #42, ( #122 ) ) ;
#23 = EDGE_LOOP ( 'NONE', ( #68 ) ) ;
#24 = DIRECTION ( 'NONE',  ( -3.491481338843133355E-15, 1.224646799147353207E-16, -1.000000000000000000 ) ) ;
#25 = COORDINATED_UNIVERSAL_TIME_OFFSET ( 1, 0, .AHEAD. ) ;
#26 = EDGE_LOOP ( 'NONE', ( #149 ) ) ;
#27 = ADVANCED_FACE ( 'NONE', ( #77 ), #7, .F. ) ;
#28 = CARTESIAN_POINT ( 'NONE',  ( 0.0000000000000000000, 0.0000000000000000000, 0.0000000000000000000 ) ) ;
#29 = APPROVAL_STATUS ( 'not_yet_approved' ) ;
#30 = DATE_AND_TIME ( #58, #199 ) ;
#31 = APPROVAL_PERSON_ORGANIZATION ( #111, #139, #215 ) ;
#32 = CIRCLE ( 'NONE', #12, 6.000000000000000000 ) ;
#33 = EDGE_LOOP ( 'NONE', ( #103 ) ) ;
#34 = EDGE_LOOP ( 'NONE', ( #171 ) ) ;
#35 = CC_DESIGN_PERSON_AND_ORGANIZATION_ASSIGNMENT ( #64, #132, ( #115 ) ) ;
#36 = DIRECTION ( 'NONE',  ( -4.275831445896957731E-31, -1.000000000000000000, -1.224646799147352961E-16 ) ) ;
#37 = AXIS2_PLACEMENT_3D ( 'NONE', #190, #24, #123 ) ;
#38 = DIRECTION ( 'NONE',  ( -3.491481338843133355E-15, 1.224646799147353207E-16, -1.000000000000000000 ) ) ;
#39 = DIRECTION ( 'NONE',  ( -3.491481338843133355E-15, 1.224646799147353207E-16, -1.000000000000000000 ) ) ;
#40 = APPROVAL_DATE_TIME ( #197, #116 ) ;
#41 = DIRECTION ( 'NONE',  ( 3.491481338843133355E-15, -1.224646799147353207E-16, 1.000000000000000000 ) ) ;
#42 = PERSON_AND_ORGANIZATION_ROLE ( 'design_owner' ) ;
#43 = DIRECTION ( 'NONE',  ( 4.275831445896959482E-31, 1.000000000000000000, 1.224646799147353207E-16 ) ) ;
#44 = AXIS2_PLACEMENT_3D ( 'NONE', #131, #191, #36 ) ;
#45 = COORDINATED_UNIVERSAL_TIME_OFFSET ( 1, 0, .AHEAD. ) ;
#46 = APPROVAL_STATUS ( 'not_yet_approved' ) ;
#47 = CALENDAR_DATE ( 2021, 12, 11 ) ;
#48 =( GEOMETRIC_REPRESENTATION_CONTEXT ( 3 ) GLOBAL_UNCERTAINTY_ASSIGNED_CONTEXT ( ( #85 ) ) GLOBAL_UNIT_ASSIGNED_CONTEXT ( ( #130, #146, #101 ) ) REPRESENTATION_CONTEXT ( 'NONE', 'WORKASPACE' ) );
#49 = DESIGN_CONTEXT ( 'detailed design', #99, 'design' ) ;
#50 = ORIENTED_EDGE ( 'NONE', *, *, #144, .T. ) ;
#51 = DIRECTION ( 'NONE',  ( -3.491481338843133355E-15, 1.224646799147353207E-16, -1.000000000000000000 ) ) ;
#52 = AXIS2_PLACEMENT_3D ( 'NONE', #154, #207, #59 ) ;
#53 = EDGE_CURVE ( 'NONE', #141, #141, #72, .T. ) ;
#54 = APPLICATION_PROTOCOL_DEFINITION ( 'international standard', 'config_control_design', 1994, #118 ) ;
#55 = PLANE ( 'NONE',  #174 ) ;
#56 = FACE_BOUND ( 'NONE', #151, .T. ) ;
#57 = DIRECTION ( 'NONE',  ( 0.0000000000000000000, 1.000000000000000000, 0.0000000000000000000 ) ) ;
#58 = CALENDAR_DATE ( 2021, 12, 11 ) ;
#59 = DIRECTION ( 'NONE',  ( 0.0000000000000000000, 1.000000000000000000, 0.0000000000000000000 ) ) ;
#60 = CARTESIAN_POINT ( 'NONE',  ( -1.239991119310117978E-30, 4.349303369719387610E-32, -3.551475717527324325E-16 ) ) ;
#61 = LOCAL_TIME ( 8, 47, 33.00000000000000000, #6 ) ;
#62 = APPROVAL_ROLE ( '' ) ;
#63 = ADVANCED_FACE ( 'NONE', ( #125 ), #153, .T. ) ;
#64 = PERSON_AND_ORGANIZATION ( #217, #183 ) ;
#65 = AXIS2_PLACEMENT_3D ( 'NONE', #74, #39, #43 ) ;
#66 = ADVANCED_FACE ( 'NONE', ( #20, #195 ), #94, .T. ) ;
#67 = SHAPE_DEFINITION_REPRESENTATION ( #87, #90 ) ;
#68 = ORIENTED_EDGE ( 'NONE', *, *, #53, .T. ) ;
#69 = CC_DESIGN_PERSON_AND_ORGANIZATION_ASSIGNMENT ( #161, #158, ( #115 ) ) ;
#70 = APPROVAL_PERSON_ORGANIZATION ( #143, #17, #186 ) ;
#71 = DIRECTION ( 'NONE',  ( 4.333342374871280669E-31, 1.000000000000000000, 1.219727444046192488E-16 ) ) ;
#72 = CIRCLE ( 'NONE', #52, 6.000000000000000000 ) ;
#73 = CONICAL_SURFACE ( 'NONE', #95, 5.999999999999989342, 0.7853981633974482790 ) ;
#74 = CARTESIAN_POINT ( 'NONE',  ( 0.0000000000000000000, 0.0000000000000000000, 0.0000000000000000000 ) ) ;
#75 = MECHANICAL_CONTEXT ( 'NONE', #118, 'mechanical' ) ;
#76 = CARTESIAN_POINT ( 'NONE',  ( 1.256933281983528008E-13, 4.499279347985566255E-32, 36.00000000000000000 ) ) ;
#77 = FACE_OUTER_BOUND ( 'NONE', #23, .T. ) ;
#78 = AXIS2_PLACEMENT_3D ( 'NONE', #28, #150, #209 ) ;
#79 = EDGE_LOOP ( 'NONE', ( #204 ) ) ;
#80 = SECURITY_CLASSIFICATION_LEVEL ( 'unclassified' ) ;
#81 = DIRECTION ( 'NONE',  ( -3.491481338843133355E-15, 1.224646799147353207E-16, -1.000000000000000000 ) ) ;
#82 = PERSON_AND_ORGANIZATION ( #217, #183 ) ;
#83 = MANIFOLD_SOLID_BREP ( 'Corps-Déplacer/Copier1[1]', #180 ) ;
#84 = CC_DESIGN_APPROVAL ( #17, ( #206 ) ) ;
#85 = UNCERTAINTY_MEASURE_WITH_UNIT (LENGTH_MEASURE( 1.000000000000000082E-05 ), #130, 'distance_accuracy_value', 'NONE');
#86 = PERSON_AND_ORGANIZATION ( #217, #183 ) ;
#87 = PRODUCT_DEFINITION_SHAPE ( 'NONE', 'NONE',  #206 ) ;
#88 = ORIENTED_EDGE ( 'NONE', *, *, #53, .F. ) ;
#89 = LOCAL_TIME ( 8, 47, 33.00000000000000000, #194 ) ;
#90 = ADVANCED_BREP_SHAPE_REPRESENTATION ( '32492', ( #83, #14, #102 ), #48 ) ;
#91 = DIRECTION ( 'NONE',  ( -3.491481338843133355E-15, 1.224646799147353207E-16, -1.000000000000000000 ) ) ;
#92 = CARTESIAN_POINT ( 'NONE',  ( 6.982962677686267697E-16, 6.000000000000000000, 0.2000000000000000111 ) ) ;
#93 = DATE_TIME_ROLE ( 'creation_date' ) ;
#94 = CYLINDRICAL_SURFACE ( 'NONE', #78, 5.999999999999994671 ) ;
#95 = AXIS2_PLACEMENT_3D ( 'NONE', #106, #211, #57 ) ;
#96 = EDGE_LOOP ( 'NONE', ( #166 ) ) ;
#97 = CALENDAR_DATE ( 2021, 12, 11 ) ;
#98 = DATE_AND_TIME ( #210, #61 ) ;
#99 = APPLICATION_CONTEXT ( 'configuration controlled 3d designs of mechanical parts and assemblies' ) ;
#100 = CLOSED_SHELL ( 'NONE', ( #160, #142, #133, #63 ) ) ;
#101 =( NAMED_UNIT ( * ) SI_UNIT ( $, .STERADIAN. ) SOLID_ANGLE_UNIT ( ) );
#102 = AXIS2_PLACEMENT_3D ( 'NONE', #147, #126, #107 ) ;
#103 = ORIENTED_EDGE ( 'NONE', *, *, #164, .T. ) ;
#104 = FACE_OUTER_BOUND ( 'NONE', #96, .T. ) ;
#105 = CARTESIAN_POINT ( 'NONE',  ( 1.256933281983528008E-13, -4.408728476930470856E-15, 36.00000000000000000 ) ) ;
#106 = CARTESIAN_POINT ( 'NONE',  ( 3.474023932148917752E-13, -1.218523565151616460E-14, 99.50000000000000000 ) ) ;
#107 = DIRECTION ( 'NONE',  ( 1.000000000000000000, 0.0000000000000000000, 0.0000000000000000000 ) ) ;
#108 = FACE_OUTER_BOUND ( 'NONE', #26, .T. ) ;
#109 = CARTESIAN_POINT ( 'NONE',  ( 0.0000000000000000000, 5.800000000000000711, 0.0000000000000000000 ) ) ;
#110 = DIRECTION ( 'NONE',  ( -4.275831445896958607E-31, -1.000000000000000000, -1.224646799147353207E-16 ) ) ;
#111 = PERSON_AND_ORGANIZATION ( #217, #183 ) ;
#112 = CARTESIAN_POINT ( 'NONE',  ( 6.982962677686241073E-16, -2.449293598294697601E-17, 0.1999999999999992895 ) ) ;
#113 = APPROVAL_STATUS ( 'not_yet_approved' ) ;
#114 = DIRECTION ( 'NONE',  ( -4.275831445896958607E-31, -1.000000000000000000, -1.224646799147353207E-16 ) ) ;
#115 = PRODUCT_DEFINITION_FORMATION_WITH_SPECIFIED_SOURCE ( 'ANY', '', #122, .NOT_KNOWN. ) ;
#116 = APPROVAL ( #29, 'UNSPECIFIED' ) ;
#117 = CIRCLE ( 'NONE', #37, 5.500000000000003553 ) ;
#118 = APPLICATION_CONTEXT ( 'configuration controlled 3d designs of mechanical parts and assemblies' ) ;
#119 = CC_DESIGN_APPROVAL ( #139, ( #129 ) ) ;
#120 = CC_DESIGN_PERSON_AND_ORGANIZATION_ASSIGNMENT ( #185, #138, ( #206 ) ) ;
#121 = EDGE_LOOP ( 'NONE', ( #169 ) ) ;
#122 = PRODUCT ( '32492', '32492', '', ( #75 ) ) ;
#123 = DIRECTION ( 'NONE',  ( 0.0000000000000000000, 1.000000000000000000, 0.0000000000000000000 ) ) ;
#124 = CARTESIAN_POINT ( 'NONE',  ( 1.256933281983528008E-13, 5.999999999999995559, 36.00000000000000000 ) ) ;
#125 = FACE_OUTER_BOUND ( 'NONE', #79, .T. ) ;
#126 = DIRECTION ( 'NONE',  ( 0.0000000000000000000, 0.0000000000000000000, 1.000000000000000000 ) ) ;
#127 = FACE_BOUND ( 'NONE', #221, .T. ) ;
#128 = VERTEX_POINT ( 'NONE', #124 ) ;
#129 = SECURITY_CLASSIFICATION ( '', '', #80 ) ;
#130 =( LENGTH_UNIT ( ) NAMED_UNIT ( * ) SI_UNIT ( .MILLI., .METRE. ) );
#131 = CARTESIAN_POINT ( 'NONE',  ( -2.479982238620235957E-30, 8.698606739438775220E-32, -7.102951435054648651E-16 ) ) ;
#132 = PERSON_AND_ORGANIZATION_ROLE ( 'design_supplier' ) ;
#133 = ADVANCED_FACE ( 'NONE', ( #108, #193 ), #223, .T. ) ;
#134 = DIRECTION ( 'NONE',  ( 3.491481338843133355E-15, -1.224646799147353207E-16, 1.000000000000000000 ) ) ;
#135 = CALENDAR_DATE ( 2021, 12, 11 ) ;
#136 = CIRCLE ( 'NONE', #176, 6.000000000000000000 ) ;
#137 = DIRECTION ( 'NONE',  ( -3.491481338843133355E-15, 1.224646799147353207E-16, -1.000000000000000000 ) ) ;
#138 = PERSON_AND_ORGANIZATION_ROLE ( 'creator' ) ;
#139 = APPROVAL ( #113, 'UNSPECIFIED' ) ;
#140 = DATE_AND_TIME ( #135, #214 ) ;
#141 = VERTEX_POINT ( 'NONE', #188 ) ;
#142 = ADVANCED_FACE ( 'NONE', ( #205, #56 ), #10, .T. ) ;
#143 = PERSON_AND_ORGANIZATION ( #217, #183 ) ;
#144 = EDGE_CURVE ( 'NONE', #200, #200, #208, .T. ) ;
#145 = ORIENTED_EDGE ( 'NONE', *, *, #144, .F. ) ;
#146 =( NAMED_UNIT ( * ) PLANE_ANGLE_UNIT ( ) SI_UNIT ( $, .RADIAN. ) );
#147 = CARTESIAN_POINT ( 'NONE',  ( 0.0000000000000000000, 0.0000000000000000000, 0.0000000000000000000 ) ) ;
#148 = LOCAL_TIME ( 8, 47, 33.00000000000000000, #45 ) ;
#149 = ORIENTED_EDGE ( 'NONE', *, *, #202, .T. ) ;
#150 = DIRECTION ( 'NONE',  ( -3.491481338843133355E-15, 1.224646799147353207E-16, -1.000000000000000000 ) ) ;
#151 = EDGE_LOOP ( 'NONE', ( #145 ) ) ;
#152 = AXIS2_PLACEMENT_3D ( 'NONE', #196, #81, #170 ) ;
#153 = PLANE ( 'NONE',  #159 ) ;
#154 = CARTESIAN_POINT ( 'NONE',  ( 1.256933281983528008E-13, -4.408728476930470856E-15, 36.00000000000000000 ) ) ;
#155 = PLANE ( 'NONE',  #222 ) ;
#156 = COORDINATED_UNIVERSAL_TIME_OFFSET ( 1, 0, .AHEAD. ) ;
#157 = CC_DESIGN_DATE_AND_TIME_ASSIGNMENT ( #98, #93, ( #206 ) ) ;
#158 = PERSON_AND_ORGANIZATION_ROLE ( 'creator' ) ;
#159 = AXIS2_PLACEMENT_3D ( 'NONE', #76, #134, #110 ) ;
#160 = ADVANCED_FACE ( 'NONE', ( #1 ), #155, .T. ) ;
#161 = PERSON_AND_ORGANIZATION ( #217, #183 ) ;
#162 = CC_DESIGN_APPROVAL ( #116, ( #115 ) ) ;
#163 = VERTEX_POINT ( 'NONE', #177 ) ;
#164 = EDGE_CURVE ( 'NONE', #163, #163, #15, .T. ) ;
#165 = DIRECTION ( 'NONE',  ( 4.275831445896958607E-31, 1.000000000000000000, 1.224646799147353207E-16 ) ) ;
#166 = ORIENTED_EDGE ( 'NONE', *, *, #219, .F. ) ;
#167 = DIRECTION ( 'NONE',  ( 4.275831445896957731E-31, 1.000000000000000000, 1.224646799147352961E-16 ) ) ;
#168 = VERTEX_POINT ( 'NONE', #2 ) ;
#169 = ORIENTED_EDGE ( 'NONE', *, *, #178, .T. ) ;
#170 = DIRECTION ( 'NONE',  ( 0.0000000000000000000, 1.000000000000000000, 0.0000000000000000000 ) ) ;
#171 = ORIENTED_EDGE ( 'NONE', *, *, #164, .F. ) ;
#172 = APPLICATION_PROTOCOL_DEFINITION ( 'international standard', 'config_control_design', 1994, #99 ) ;
#173 = PERSON_AND_ORGANIZATION ( #217, #183 ) ;
#174 = AXIS2_PLACEMENT_3D ( 'NONE', #18, #38, #165 ) ;
#175 = EDGE_LOOP ( 'NONE', ( #88 ) ) ;
#176 = AXIS2_PLACEMENT_3D ( 'NONE', #112, #51, #71 ) ;
#177 = CARTESIAN_POINT ( 'NONE',  ( 3.474023932148917752E-13, 5.999999999999977796, 99.50000000000000000 ) ) ;
#178 = EDGE_CURVE ( 'NONE', #220, #220, #136, .T. ) ;
#179 = DIRECTION ( 'NONE',  ( -3.491481338843133355E-15, 1.224646799147353207E-16, -1.000000000000000000 ) ) ;
#180 = CLOSED_SHELL ( 'NONE', ( #27, #66, #13, #187 ) ) ;
#181 = CARTESIAN_POINT ( 'NONE',  ( -2.479982238620235957E-30, 8.698606739438775220E-32, -7.102951435054648651E-16 ) ) ;
#182 = DATE_AND_TIME ( #47, #89 ) ;
#183 = ORGANIZATION ( 'UNSPECIFIED', 'UNSPECIFIED', '' ) ;
#184 = EDGE_LOOP ( 'NONE', ( #50 ) ) ;
#185 = PERSON_AND_ORGANIZATION ( #217, #183 ) ;
#186 = APPROVAL_ROLE ( '' ) ;
#187 = ADVANCED_FACE ( 'NONE', ( #104 ), #55, .F. ) ;
#188 = CARTESIAN_POINT ( 'NONE',  ( 1.256933281983528008E-13, 5.999999999999995559, 36.00000000000000000 ) ) ;
#189 = ORIENTED_EDGE ( 'NONE', *, *, #178, .F. ) ;
#190 = CARTESIAN_POINT ( 'NONE',  ( 3.491481338843132850E-13, -1.224646799147353059E-14, 99.99999999999998579 ) ) ;
#191 = DIRECTION ( 'NONE',  ( 3.491481338843133355E-15, -1.224646799147353207E-16, 1.000000000000000000 ) ) ;
#192 = CARTESIAN_POINT ( 'NONE',  ( 1.256933281983528008E-13, 4.499279347985566255E-32, 36.00000000000000000 ) ) ;
#193 = FACE_OUTER_BOUND ( 'NONE', #5, .T. ) ;
#194 = COORDINATED_UNIVERSAL_TIME_OFFSET ( 1, 0, .AHEAD. ) ;
#195 = FACE_OUTER_BOUND ( 'NONE', #175, .T. ) ;
#196 = CARTESIAN_POINT ( 'NONE',  ( 3.474023932148917752E-13, -1.218523565151616460E-14, 99.50000000000000000 ) ) ;
#197 = DATE_AND_TIME ( #97, #148 ) ;
#198 = CC_DESIGN_PERSON_AND_ORGANIZATION_ASSIGNMENT ( #173, #216, ( #129 ) ) ;
#199 = LOCAL_TIME ( 8, 47, 33.00000000000000000, #25 ) ;
#200 = VERTEX_POINT ( 'NONE', #109 ) ;
#201 = AXIS2_PLACEMENT_3D ( 'NONE', #181, #91, #167 ) ;
#202 = EDGE_CURVE ( 'NONE', #128, #128, #32, .T. ) ;
#203 = AXIS2_PLACEMENT_3D ( 'NONE', #192, #41, #114 ) ;
#204 = ORIENTED_EDGE ( 'NONE', *, *, #202, .F. ) ;
#205 = FACE_OUTER_BOUND ( 'NONE', #121, .T. ) ;
#206 = PRODUCT_DEFINITION ( 'UNKNOWN', '', #115, #49 ) ;
#207 = DIRECTION ( 'NONE',  ( -3.491481338843133355E-15, 1.224646799147353207E-16, -1.000000000000000000 ) ) ;
#208 = CIRCLE ( 'NONE', #201, 5.800000000000000711 ) ;
#209 = DIRECTION ( 'NONE',  ( 4.275831445896958607E-31, 1.000000000000000000, 1.224646799147353207E-16 ) ) ;
#210 = CALENDAR_DATE ( 2021, 12, 11 ) ;
#211 = DIRECTION ( 'NONE',  ( -3.491481338843133355E-15, 1.224646799147353207E-16, -1.000000000000000000 ) ) ;
#212 = DIRECTION ( 'NONE',  ( 4.275831445896958607E-31, 1.000000000000000000, 1.224646799147353207E-16 ) ) ;
#213 = APPROVAL_DATE_TIME ( #140, #139 ) ;
#214 = LOCAL_TIME ( 8, 47, 33.00000000000000000, #156 ) ;
#215 = APPROVAL_ROLE ( '' ) ;
#216 = PERSON_AND_ORGANIZATION_ROLE ( 'classification_officer' ) ;
#217 = PERSON ( 'UNSPECIFIED', 'UNSPECIFIED', 'UNSPECIFIED', ('UNSPECIFIED'), ('UNSPECIFIED'), ('UNSPECIFIED') ) ;
#218 = CC_DESIGN_DATE_AND_TIME_ASSIGNMENT ( #182, #9, ( #129 ) ) ;
#219 = EDGE_CURVE ( 'NONE', #168, #168, #117, .T. ) ;
#220 = VERTEX_POINT ( 'NONE', #92 ) ;
#221 = EDGE_LOOP ( 'NONE', ( #16 ) ) ;
#222 = AXIS2_PLACEMENT_3D ( 'NONE', #60, #137, #212 ) ;
#223 = CYLINDRICAL_SURFACE ( 'NONE', #65, 6.000000000000000000 ) ;
ENDSEC;
END-ISO-10303-21;
