ISO-10303-21;
HEADER;
FILE_DESCRIPTION (( 'STEP AP203' ),
    '1' );
FILE_NAME ('32491.step',
    '2021-11-12T07:47:33',
    ( '' ),
    ( '' ),
    'SwSTEP 2.0',
    'SolidWorks 2019',
    '' );
FILE_SCHEMA (( 'CONFIG_CONTROL_DESIGN' ));
ENDSEC;

DATA;
#1 = EDGE_LOOP ( 'NONE', ( #47 ) ) ;
#2 = VERTEX_POINT ( 'NONE', #137 ) ;
#3 = LOCAL_TIME ( 8, 47, 33.00000000000000000, #31 ) ;
#4 = DIRECTION ( 'NONE',  ( 4.275831445896959482E-31, 1.000000000000000000, 1.224646799147353454E-16 ) ) ;
#5 = CARTESIAN_POINT ( 'NONE',  ( 1.047444401652940007E-13, -3.673940397442059967E-15, 30.00000000000000000 ) ) ;
#6 = ADVANCED_FACE ( 'NONE', ( #78 ), #110, .F. ) ;
#7 = MANIFOLD_SOLID_BREP ( 'Corps-Déplacer/Copier1[2]', #8 ) ;
#8 = CLOSED_SHELL ( 'NONE', ( #166, #26, #107, #48 ) ) ;
#9 = APPROVAL ( #95, 'UNSPECIFIED' ) ;
#10 = PERSON_AND_ORGANIZATION ( #213, #98 ) ;
#11 = DATE_TIME_ROLE ( 'classification_date' ) ;
#12 = EDGE_LOOP ( 'NONE', ( #177 ) ) ;
#13 = EDGE_LOOP ( 'NONE', ( #186 ) ) ;
#14 = DATE_TIME_ROLE ( 'creation_date' ) ;
#15 = AXIS2_PLACEMENT_3D ( 'NONE', #218, #221, #60 ) ;
#16 = CARTESIAN_POINT ( 'NONE',  ( 1.047444401652940007E-13, 3.749399456654640188E-32, 30.00000000000000000 ) ) ;
#17 = APPROVAL ( #180, 'UNSPECIFIED' ) ;
#18 = CARTESIAN_POINT ( 'NONE',  ( -2.052399094030540972E-30, 7.198846956776920897E-32, -5.878304635907297169E-16 ) ) ;
#19 = DIRECTION ( 'NONE',  ( -3.491481338843133355E-15, 1.224646799147353454E-16, -1.000000000000000000 ) ) ;
#20 = EDGE_CURVE ( 'NONE', #21, #21, #211, .T. ) ;
#21 = VERTEX_POINT ( 'NONE', #208 ) ;
#22 = AXIS2_PLACEMENT_3D ( 'NONE', #150, #149, #223 ) ;
#23 = DIRECTION ( 'NONE',  ( -4.275831445896959482E-31, -1.000000000000000000, -1.224646799147353454E-16 ) ) ;
#24 = PERSON_AND_ORGANIZATION ( #213, #98 ) ;
#25 = APPROVAL_ROLE ( '' ) ;
#26 = ADVANCED_FACE ( 'NONE', ( #92, #148 ), #73, .T. ) ;
#27 = EDGE_LOOP ( 'NONE', ( #59 ) ) ;
#28 = CC_DESIGN_APPROVAL ( #17, ( #125 ) ) ;
#29 = AXIS2_PLACEMENT_3D ( 'NONE', #175, #191, #35 ) ;
#30 = DIRECTION ( 'NONE',  ( -4.275831445896959482E-31, -1.000000000000000000, -1.224646799147353454E-16 ) ) ;
#31 = COORDINATED_UNIVERSAL_TIME_OFFSET ( 1, 0, .AHEAD. ) ;
#32 = ORIENTED_EDGE ( 'NONE', *, *, #142, .T. ) ;
#33 = CC_DESIGN_DATE_AND_TIME_ASSIGNMENT ( #216, #14, ( #91 ) ) ;
#34 = CONICAL_SURFACE ( 'NONE', #22, 4.999999999999994671, 0.7853981633974415066 ) ;
#35 = DIRECTION ( 'NONE',  ( 4.237045877651918877E-31, 1.000000000000000000, 1.246832498358330099E-16 ) ) ;
#36 = DIRECTION ( 'NONE',  ( -3.491481338843133355E-15, 1.224646799147353454E-16, -1.000000000000000000 ) ) ;
#37 = DIRECTION ( 'NONE',  ( -3.491481338843133355E-15, 1.224646799147353454E-16, -1.000000000000000000 ) ) ;
#38 = LOCAL_TIME ( 8, 47, 33.00000000000000000, #159 ) ;
#39 = DIRECTION ( 'NONE',  ( 4.275831445896959482E-31, 1.000000000000000000, 1.224646799147353454E-16 ) ) ;
#40 = AXIS2_PLACEMENT_3D ( 'NONE', #215, #113, #219 ) ;
#41 =( GEOMETRIC_REPRESENTATION_CONTEXT ( 3 ) GLOBAL_UNCERTAINTY_ASSIGNED_CONTEXT ( ( #126 ) ) GLOBAL_UNIT_ASSIGNED_CONTEXT ( ( #206, #119, #68 ) ) REPRESENTATION_CONTEXT ( 'NONE', 'WORKASPACE' ) );
#42 = PERSON_AND_ORGANIZATION_ROLE ( 'design_supplier' ) ;
#43 = CALENDAR_DATE ( 2021, 12, 11 ) ;
#44 = PRODUCT_DEFINITION_SHAPE ( 'NONE', 'NONE',  #91 ) ;
#45 = DATE_AND_TIME ( #81, #38 ) ;
#46 = APPLICATION_CONTEXT ( 'configuration controlled 3d designs of mechanical parts and assemblies' ) ;
#47 = ORIENTED_EDGE ( 'NONE', *, *, #121, .F. ) ;
#48 = ADVANCED_FACE ( 'NONE', ( #168 ), #83, .T. ) ;
#49 = FACE_OUTER_BOUND ( 'NONE', #74, .T. ) ;
#50 = CC_DESIGN_APPROVAL ( #56, ( #91 ) ) ;
#51 = DIRECTION ( 'NONE',  ( -3.491481338843133355E-15, 1.224646799147353454E-16, -1.000000000000000000 ) ) ;
#52 = FACE_OUTER_BOUND ( 'NONE', #181, .T. ) ;
#53 = CC_DESIGN_PERSON_AND_ORGANIZATION_ASSIGNMENT ( #133, #58, ( #200 ) ) ;
#54 = ADVANCED_FACE ( 'NONE', ( #100, #164 ), #34, .T. ) ;
#55 = APPLICATION_PROTOCOL_DEFINITION ( 'international standard', 'config_control_design', 1994, #129 ) ;
#56 = APPROVAL ( #198, 'UNSPECIFIED' ) ;
#57 = AXIS2_PLACEMENT_3D ( 'NONE', #108, #86, #4 ) ;
#58 = PERSON_AND_ORGANIZATION_ROLE ( 'design_owner' ) ;
#59 = ORIENTED_EDGE ( 'NONE', *, *, #154, .T. ) ;
#60 = DIRECTION ( 'NONE',  ( -4.275831445896958607E-31, -1.000000000000000000, -1.224646799147353454E-16 ) ) ;
#61 = PERSON_AND_ORGANIZATION_ROLE ( 'creator' ) ;
#62 = APPROVAL_DATE_TIME ( #165, #9 ) ;
#63 = FACE_OUTER_BOUND ( 'NONE', #13, .T. ) ;
#64 = ORIENTED_EDGE ( 'NONE', *, *, #20, .F. ) ;
#65 = VERTEX_POINT ( 'NONE', #120 ) ;
#66 = AXIS2_PLACEMENT_3D ( 'NONE', #132, #80, #114 ) ;
#67 = FACE_OUTER_BOUND ( 'NONE', #205, .T. ) ;
#68 =( NAMED_UNIT ( * ) SI_UNIT ( $, .STERADIAN. ) SOLID_ANGLE_UNIT ( ) );
#69 = VERTEX_POINT ( 'NONE', #106 ) ;
#70 = AXIS2_PLACEMENT_3D ( 'NONE', #16, #183, #30 ) ;
#71 = DESIGN_CONTEXT ( 'detailed design', #129, 'design' ) ;
#72 = CC_DESIGN_SECURITY_CLASSIFICATION ( #125, ( #176 ) ) ;
#73 = CONICAL_SURFACE ( 'NONE', #15, 4.800000000000000711, 0.7853981633974473908 ) ;
#74 = EDGE_LOOP ( 'NONE', ( #64 ) ) ;
#75 = APPROVAL_ROLE ( '' ) ;
#76 = MANIFOLD_SOLID_BREP ( 'Corps-Déplacer/Copier1[1]', #179 ) ;
#77 = APPLICATION_PROTOCOL_DEFINITION ( 'international standard', 'config_control_design', 1994, #46 ) ;
#78 = FACE_OUTER_BOUND ( 'NONE', #27, .T. ) ;
#79 = PERSON_AND_ORGANIZATION_ROLE ( 'creator' ) ;
#80 = DIRECTION ( 'NONE',  ( -3.491481338843133355E-15, 1.224646799147353454E-16, -1.000000000000000000 ) ) ;
#81 = CALENDAR_DATE ( 2021, 12, 11 ) ;
#82 = APPROVAL_PERSON_ORGANIZATION ( #10, #17, #75 ) ;
#83 = PLANE ( 'NONE',  #70 ) ;
#84 = ORIENTED_EDGE ( 'NONE', *, *, #154, .F. ) ;
#85 = DIRECTION ( 'NONE',  ( -3.491481338843133355E-15, 1.224646799147353454E-16, -1.000000000000000000 ) ) ;
#86 = DIRECTION ( 'NONE',  ( -3.491481338843133355E-15, 1.224646799147353454E-16, -1.000000000000000000 ) ) ;
#87 = CIRCLE ( 'NONE', #199, 4.999999999999999112 ) ;
#88 = VERTEX_POINT ( 'NONE', #123 ) ;
#89 = CYLINDRICAL_SURFACE ( 'NONE', #204, 4.999999999999997335 ) ;
#90 = CARTESIAN_POINT ( 'NONE',  ( 1.047444401652940007E-13, -3.673940397442059967E-15, 30.00000000000000000 ) ) ;
#91 = PRODUCT_DEFINITION ( 'UNKNOWN', '', #176, #71 ) ;
#92 = FACE_OUTER_BOUND ( 'NONE', #152, .T. ) ;
#93 = COORDINATED_UNIVERSAL_TIME_OFFSET ( 1, 0, .AHEAD. ) ;
#94 = PERSON_AND_ORGANIZATION ( #213, #98 ) ;
#95 = APPROVAL_STATUS ( 'not_yet_approved' ) ;
#96 = APPROVAL_PERSON_ORGANIZATION ( #185, #9, #25 ) ;
#97 = EDGE_LOOP ( 'NONE', ( #102 ) ) ;
#98 = ORGANIZATION ( 'UNSPECIFIED', 'UNSPECIFIED', '' ) ;
#99 = SECURITY_CLASSIFICATION_LEVEL ( 'unclassified' ) ;
#100 = FACE_BOUND ( 'NONE', #136, .T. ) ;
#101 = CALENDAR_DATE ( 2021, 12, 11 ) ;
#102 = ORIENTED_EDGE ( 'NONE', *, *, #220, .F. ) ;
#103 = ORIENTED_EDGE ( 'NONE', *, *, #142, .F. ) ;
#104 = DIRECTION ( 'NONE',  ( 4.275831445896958607E-31, 1.000000000000000000, 1.224646799147353454E-16 ) ) ;
#105 = DIRECTION ( 'NONE',  ( 4.275831445896958607E-31, 1.000000000000000000, 1.224646799147353454E-16 ) ) ;
#106 = CARTESIAN_POINT ( 'NONE',  ( 6.982962677686266711E-16, 5.000000000000000000, 0.2000000000000000111 ) ) ;
#107 = ADVANCED_FACE ( 'NONE', ( #63, #135 ), #117, .T. ) ;
#108 = CARTESIAN_POINT ( 'NONE',  ( -1.026199547015270486E-30, 3.599423478388460448E-32, -2.939152317953648585E-16 ) ) ;
#109 = AXIS2_PLACEMENT_3D ( 'NONE', #5, #51, #209 ) ;
#110 = PLANE ( 'NONE',  #173 ) ;
#111 = ADVANCED_FACE ( 'NONE', ( #49 ), #118, .F. ) ;
#112 = DATE_AND_TIME ( #43, #172 ) ;
#113 = DIRECTION ( 'NONE',  ( 0.0000000000000000000, 0.0000000000000000000, 1.000000000000000000 ) ) ;
#114 = DIRECTION ( 'NONE',  ( 0.0000000000000000000, 1.000000000000000000, 0.0000000000000000000 ) ) ;
#115 = DATE_AND_TIME ( #144, #212 ) ;
#116 = ORIENTED_EDGE ( 'NONE', *, *, #127, .F. ) ;
#117 = CYLINDRICAL_SURFACE ( 'NONE', #156, 4.999999999999999112 ) ;
#118 = PLANE ( 'NONE',  #184 ) ;
#119 =( NAMED_UNIT ( * ) PLANE_ANGLE_UNIT ( ) SI_UNIT ( $, .RADIAN. ) );
#120 = CARTESIAN_POINT ( 'NONE',  ( 3.124875798264604164E-13, 4.999999999999984013, 89.50000000000000000 ) ) ;
#121 = EDGE_CURVE ( 'NONE', #153, #153, #146, .T. ) ;
#122 = DIRECTION ( 'NONE',  ( 4.275831445896959482E-31, 1.000000000000000000, 1.224646799147353454E-16 ) ) ;
#123 = CARTESIAN_POINT ( 'NONE',  ( 1.047444401652940007E-13, 4.999999999999995559, 30.00000000000000000 ) ) ;
#124 = CC_DESIGN_PERSON_AND_ORGANIZATION_ASSIGNMENT ( #201, #42, ( #176 ) ) ;
#125 = SECURITY_CLASSIFICATION ( '', '', #99 ) ;
#126 = UNCERTAINTY_MEASURE_WITH_UNIT (LENGTH_MEASURE( 1.000000000000000082E-05 ), #206, 'distance_accuracy_value', 'NONE');
#127 = EDGE_CURVE ( 'NONE', #65, #65, #190, .T. ) ;
#128 = PERSON_AND_ORGANIZATION_ROLE ( 'classification_officer' ) ;
#129 = APPLICATION_CONTEXT ( 'configuration controlled 3d designs of mechanical parts and assemblies' ) ;
#130 = COORDINATED_UNIVERSAL_TIME_OFFSET ( 1, 0, .AHEAD. ) ;
#131 = CC_DESIGN_DATE_AND_TIME_ASSIGNMENT ( #45, #11, ( #125 ) ) ;
#132 = CARTESIAN_POINT ( 'NONE',  ( 3.142333204958819767E-13, -1.102182119232618069E-14, 90.00000000000000000 ) ) ;
#133 = PERSON_AND_ORGANIZATION ( #213, #98 ) ;
#134 = APPROVAL_ROLE ( '' ) ;
#135 = FACE_OUTER_BOUND ( 'NONE', #157, .T. ) ;
#136 = EDGE_LOOP ( 'NONE', ( #167 ) ) ;
#137 = CARTESIAN_POINT ( 'NONE',  ( 1.047444401652940007E-13, 4.999999999999995559, 30.00000000000000000 ) ) ;
#138 = CARTESIAN_POINT ( 'NONE',  ( 0.0000000000000000000, 0.0000000000000000000, 0.0000000000000000000 ) ) ;
#139 = DIRECTION ( 'NONE',  ( -3.491481338843133355E-15, 1.224646799147353454E-16, -1.000000000000000000 ) ) ;
#140 = AXIS2_PLACEMENT_3D ( 'NONE', #18, #36, #105 ) ;
#141 = DIRECTION ( 'NONE',  ( -3.491481338843133355E-15, 1.224646799147353454E-16, -1.000000000000000000 ) ) ;
#142 = EDGE_CURVE ( 'NONE', #69, #69, #169, .T. ) ;
#143 = CARTESIAN_POINT ( 'NONE',  ( 1.047444401652940007E-13, 3.749399456654640188E-32, 30.00000000000000000 ) ) ;
#144 = CALENDAR_DATE ( 2021, 12, 11 ) ;
#145 = PRODUCT_RELATED_PRODUCT_CATEGORY ( 'detail', '', ( #200 ) ) ;
#146 = CIRCLE ( 'NONE', #140, 4.800000000000000711 ) ;
#147 = APPROVAL_DATE_TIME ( #112, #17 ) ;
#148 = FACE_BOUND ( 'NONE', #1, .T. ) ;
#149 = DIRECTION ( 'NONE',  ( -3.491481338843133355E-15, 1.224646799147353454E-16, -1.000000000000000000 ) ) ;
#150 = CARTESIAN_POINT ( 'NONE',  ( 3.124875798264604164E-13, -1.096058885236881311E-14, 89.50000000000000000 ) ) ;
#151 = CC_DESIGN_PERSON_AND_ORGANIZATION_ASSIGNMENT ( #197, #79, ( #176 ) ) ;
#152 = EDGE_LOOP ( 'NONE', ( #32 ) ) ;
#153 = VERTEX_POINT ( 'NONE', #210 ) ;
#154 = EDGE_CURVE ( 'NONE', #88, #88, #87, .T. ) ;
#155 = DIRECTION ( 'NONE',  ( 0.0000000000000000000, 1.000000000000000000, 0.0000000000000000000 ) ) ;
#156 = AXIS2_PLACEMENT_3D ( 'NONE', #170, #141, #104 ) ;
#157 = EDGE_LOOP ( 'NONE', ( #103 ) ) ;
#158 = APPROVAL_PERSON_ORGANIZATION ( #94, #56, #134 ) ;
#159 = COORDINATED_UNIVERSAL_TIME_OFFSET ( 1, 0, .AHEAD. ) ;
#160 = SHAPE_DEFINITION_REPRESENTATION ( #44, #162 ) ;
#161 = ORIENTED_EDGE ( 'NONE', *, *, #121, .T. ) ;
#162 = ADVANCED_BREP_SHAPE_REPRESENTATION ( '32491', ( #76, #7, #40 ), #41 ) ;
#163 = PERSON_AND_ORGANIZATION ( #213, #98 ) ;
#164 = FACE_OUTER_BOUND ( 'NONE', #203, .T. ) ;
#165 = DATE_AND_TIME ( #101, #3 ) ;
#166 = ADVANCED_FACE ( 'NONE', ( #52 ), #194, .T. ) ;
#167 = ORIENTED_EDGE ( 'NONE', *, *, #20, .T. ) ;
#168 = FACE_OUTER_BOUND ( 'NONE', #97, .T. ) ;
#169 = CIRCLE ( 'NONE', #29, 5.000000000000000000 ) ;
#170 = CARTESIAN_POINT ( 'NONE',  ( 0.0000000000000000000, 0.0000000000000000000, 0.0000000000000000000 ) ) ;
#171 = CARTESIAN_POINT ( 'NONE',  ( 3.142333204958819767E-13, 3.374459510989165386E-32, 90.00000000000000000 ) ) ;
#172 = LOCAL_TIME ( 8, 47, 33.00000000000000000, #182 ) ;
#173 = AXIS2_PLACEMENT_3D ( 'NONE', #143, #187, #23 ) ;
#174 = FACE_OUTER_BOUND ( 'NONE', #12, .T. ) ;
#175 = CARTESIAN_POINT ( 'NONE',  ( 6.982962677686245017E-16, -2.449293598294699450E-17, 0.1999999999999993727 ) ) ;
#176 = PRODUCT_DEFINITION_FORMATION_WITH_SPECIFIED_SOURCE ( 'ANY', '', #200, .NOT_KNOWN. ) ;
#177 = ORIENTED_EDGE ( 'NONE', *, *, #127, .T. ) ;
#178 = MECHANICAL_CONTEXT ( 'NONE', #46, 'mechanical' ) ;
#179 = CLOSED_SHELL ( 'NONE', ( #6, #189, #54, #111 ) ) ;
#180 = APPROVAL_STATUS ( 'not_yet_approved' ) ;
#181 = EDGE_LOOP ( 'NONE', ( #161 ) ) ;
#182 = COORDINATED_UNIVERSAL_TIME_OFFSET ( 1, 0, .AHEAD. ) ;
#183 = DIRECTION ( 'NONE',  ( 3.491481338843133355E-15, -1.224646799147353454E-16, 1.000000000000000000 ) ) ;
#184 = AXIS2_PLACEMENT_3D ( 'NONE', #171, #85, #122 ) ;
#185 = PERSON_AND_ORGANIZATION ( #213, #98 ) ;
#186 = ORIENTED_EDGE ( 'NONE', *, *, #220, .T. ) ;
#187 = DIRECTION ( 'NONE',  ( 3.491481338843133355E-15, -1.224646799147353454E-16, 1.000000000000000000 ) ) ;
#188 = CARTESIAN_POINT ( 'NONE',  ( 3.124875798264604164E-13, -1.096058885236881311E-14, 89.50000000000000000 ) ) ;
#189 = ADVANCED_FACE ( 'NONE', ( #174, #67 ), #89, .T. ) ;
#190 = CIRCLE ( 'NONE', #217, 4.999999999999994671 ) ;
#191 = DIRECTION ( 'NONE',  ( -3.491481338843133355E-15, 1.224646799147353454E-16, -1.000000000000000000 ) ) ;
#192 = DIRECTION ( 'NONE',  ( 0.0000000000000000000, 1.000000000000000000, 0.0000000000000000000 ) ) ;
#193 = CC_DESIGN_APPROVAL ( #9, ( #176 ) ) ;
#194 = PLANE ( 'NONE',  #57 ) ;
#195 = LOCAL_TIME ( 8, 47, 33.00000000000000000, #93 ) ;
#196 = CC_DESIGN_PERSON_AND_ORGANIZATION_ASSIGNMENT ( #24, #61, ( #91 ) ) ;
#197 = PERSON_AND_ORGANIZATION ( #213, #98 ) ;
#198 = APPROVAL_STATUS ( 'not_yet_approved' ) ;
#199 = AXIS2_PLACEMENT_3D ( 'NONE', #90, #19, #192 ) ;
#200 = PRODUCT ( '32491', '32491', '', ( #178 ) ) ;
#201 = PERSON_AND_ORGANIZATION ( #213, #98 ) ;
#202 = APPROVAL_DATE_TIME ( #115, #56 ) ;
#203 = EDGE_LOOP ( 'NONE', ( #116 ) ) ;
#204 = AXIS2_PLACEMENT_3D ( 'NONE', #138, #139, #39 ) ;
#205 = EDGE_LOOP ( 'NONE', ( #84 ) ) ;
#206 =( LENGTH_UNIT ( ) NAMED_UNIT ( * ) SI_UNIT ( .MILLI., .METRE. ) );
#207 = CIRCLE ( 'NONE', #109, 4.999999999999999112 ) ;
#208 = CARTESIAN_POINT ( 'NONE',  ( 3.142333204958819767E-13, 4.499999999999990230, 90.00000000000000000 ) ) ;
#209 = DIRECTION ( 'NONE',  ( 0.0000000000000000000, 1.000000000000000000, 0.0000000000000000000 ) ) ;
#210 = CARTESIAN_POINT ( 'NONE',  ( -3.421138828918010427E-46, 4.800000000000000711, 0.0000000000000000000 ) ) ;
#211 = CIRCLE ( 'NONE', #66, 4.500000000000001776 ) ;
#212 = LOCAL_TIME ( 8, 47, 33.00000000000000000, #130 ) ;
#213 = PERSON ( 'UNSPECIFIED', 'UNSPECIFIED', 'UNSPECIFIED', ('UNSPECIFIED'), ('UNSPECIFIED'), ('UNSPECIFIED') ) ;
#214 = CC_DESIGN_PERSON_AND_ORGANIZATION_ASSIGNMENT ( #163, #128, ( #125 ) ) ;
#215 = CARTESIAN_POINT ( 'NONE',  ( 0.0000000000000000000, 0.0000000000000000000, 0.0000000000000000000 ) ) ;
#216 = DATE_AND_TIME ( #222, #195 ) ;
#217 = AXIS2_PLACEMENT_3D ( 'NONE', #188, #37, #155 ) ;
#218 = CARTESIAN_POINT ( 'NONE',  ( -2.052399094030540972E-30, 7.198846956776920897E-32, -5.878304635907297169E-16 ) ) ;
#219 = DIRECTION ( 'NONE',  ( 1.000000000000000000, 0.0000000000000000000, 0.0000000000000000000 ) ) ;
#220 = EDGE_CURVE ( 'NONE', #2, #2, #207, .T. ) ;
#221 = DIRECTION ( 'NONE',  ( 3.491481338843133355E-15, -1.224646799147353454E-16, 1.000000000000000000 ) ) ;
#222 = CALENDAR_DATE ( 2021, 12, 11 ) ;
#223 = DIRECTION ( 'NONE',  ( 0.0000000000000000000, 1.000000000000000000, 0.0000000000000000000 ) ) ;
ENDSEC;
END-ISO-10303-21;
