ISO-10303-21;
HEADER;
FILE_DESCRIPTION (( 'STEP AP203' ),
    '1' );
FILE_NAME ('3249.step',
    '2021-12-06T12:58:45',
    ( '' ),
    ( '' ),
    'SwSTEP 2.0',
    'SolidWorks 2019',
    '' );
FILE_SCHEMA (( 'CONFIG_CONTROL_DESIGN' ));
ENDSEC;

DATA;
#1 = LOCAL_TIME ( 13, 58, 45.00000000000000000, #25 ) ;
#2 = EDGE_CURVE ( 'NONE', #117, #117, #142, .T. ) ;
#3 = CIRCLE ( 'NONE', #122, 4.000000000000000000 ) ;
#4 = LOCAL_TIME ( 13, 58, 45.00000000000000000, #27 ) ;
#5 = ORIENTED_EDGE ( 'NONE', *, *, #79, .F. ) ;
#6 = CYLINDRICAL_SURFACE ( 'NONE', #54, 4.000000000000000000 ) ;
#7 = ADVANCED_FACE ( 'NONE', ( #112, #20 ), #161, .T. ) ;
#8 = DIRECTION ( 'NONE',  ( -3.491481338843133355E-15, 4.408728476930471151E-16, -1.000000000000000000 ) ) ;
#9 = CC_DESIGN_DATE_AND_TIME_ASSIGNMENT ( #51, #48, ( #143 ) ) ;
#10 = DIRECTION ( 'NONE',  ( 0.0000000000000000000, 0.0000000000000000000, 1.000000000000000000 ) ) ;
#11 = AXIS2_PLACEMENT_3D ( 'NONE', #134, #69, #41 ) ;
#12 = DATE_AND_TIME ( #126, #165 ) ;
#13 = DIRECTION ( 'NONE',  ( -3.491481338843133355E-15, 4.408728476930471151E-16, -1.000000000000000000 ) ) ;
#14 = APPROVAL_PERSON_ORGANIZATION ( #50, #98, #59 ) ;
#15 = APPLICATION_PROTOCOL_DEFINITION ( 'international standard', 'config_control_design', 1994, #164 ) ;
#16 = APPROVAL ( #46, 'UNSPECIFIED' ) ;
#17 = PERSON_AND_ORGANIZATION ( #150, #146 ) ;
#18 = AXIS2_PLACEMENT_3D ( 'NONE', #63, #13, #115 ) ;
#19 = ORIENTED_EDGE ( 'NONE', *, *, #2, .T. ) ;
#20 = FACE_OUTER_BOUND ( 'NONE', #131, .T. ) ;
#21 = CC_DESIGN_DATE_AND_TIME_ASSIGNMENT ( #12, #85, ( #49 ) ) ;
#22 = CARTESIAN_POINT ( 'NONE',  ( 8.728703347107772251E-16, -1.102182119232609776E-16, 0.2499999999999982236 ) ) ;
#23 = APPROVAL_STATUS ( 'not_yet_approved' ) ;
#24 = PERSON_AND_ORGANIZATION ( #150, #146 ) ;
#25 = COORDINATED_UNIVERSAL_TIME_OFFSET ( 1, 0, .AHEAD. ) ;
#26 = APPROVAL_STATUS ( 'not_yet_approved' ) ;
#27 = COORDINATED_UNIVERSAL_TIME_OFFSET ( 1, 0, .AHEAD. ) ;
#28 = DATE_AND_TIME ( #34, #81 ) ;
#29 = LOCAL_TIME ( 13, 58, 45.00000000000000000, #90 ) ;
#30 = APPLICATION_CONTEXT ( 'configuration controlled 3d designs of mechanical parts and assemblies' ) ;
#31 = FACE_OUTER_BOUND ( 'NONE', #64, .T. ) ;
#32 = CARTESIAN_POINT ( 'NONE',  ( -1.924124150653631285E-29, 2.429610847912209281E-30, -5.510910596163089556E-15 ) ) ;
#33 =( NAMED_UNIT ( * ) PLANE_ANGLE_UNIT ( ) SI_UNIT ( $, .RADIAN. ) );
#34 = CALENDAR_DATE ( 2021, 6, 12 ) ;
#35 = APPROVAL_ROLE ( '' ) ;
#36 = CARTESIAN_POINT ( 'NONE',  ( 0.0000000000000000000, 12.50000000000000000, 0.0000000000000000000 ) ) ;
#37 = CARTESIAN_POINT ( 'NONE',  ( 6.842277657836020854E-46, 4.000000000000000000, 0.0000000000000000000 ) ) ;
#38 = CC_DESIGN_PERSON_AND_ORGANIZATION_ASSIGNMENT ( #113, #163, ( #49 ) ) ;
#39 = PERSON_AND_ORGANIZATION ( #150, #146 ) ;
#40 = PRODUCT_DEFINITION_FORMATION_WITH_SPECIFIED_SOURCE ( 'ANY', '', #133, .NOT_KNOWN. ) ;
#41 = DIRECTION ( 'NONE',  ( 1.539299320522905028E-30, 1.000000000000000000, 4.408728476930471151E-16 ) ) ;
#42 = DIRECTION ( 'NONE',  ( -1.539299320522905028E-30, -1.000000000000000000, -4.408728476930471151E-16 ) ) ;
#43 =( LENGTH_UNIT ( ) NAMED_UNIT ( * ) SI_UNIT ( .MILLI., .METRE. ) );
#44 = DATE_AND_TIME ( #105, #29 ) ;
#45 = CARTESIAN_POINT ( 'NONE',  ( 8.728703347107833388E-16, 12.50000000000000000, 0.2500000000000000000 ) ) ;
#46 = APPROVAL_STATUS ( 'not_yet_approved' ) ;
#47 = CARTESIAN_POINT ( 'NONE',  ( 8.728703347107833388E-16, 4.000000000000000000, 0.2500000000000000000 ) ) ;
#48 = DATE_TIME_ROLE ( 'classification_date' ) ;
#49 = PRODUCT_DEFINITION ( 'UNKNOWN', '', #40, #95 ) ;
#50 = PERSON_AND_ORGANIZATION ( #150, #146 ) ;
#51 = DATE_AND_TIME ( #116, #4 ) ;
#52 = UNCERTAINTY_MEASURE_WITH_UNIT (LENGTH_MEASURE( 1.000000000000000082E-05 ), #43, 'distance_accuracy_value', 'NONE');
#53 = EDGE_LOOP ( 'NONE', ( #58 ) ) ;
#54 = AXIS2_PLACEMENT_3D ( 'NONE', #159, #99, #148 ) ;
#55 = CC_DESIGN_PERSON_AND_ORGANIZATION_ASSIGNMENT ( #60, #136, ( #143 ) ) ;
#56 = ADVANCED_BREP_SHAPE_REPRESENTATION ( '3249', ( #78, #67 ), #132 ) ;
#57 = DIRECTION ( 'NONE',  ( -3.491481338843133355E-15, 4.408728476930471151E-16, -1.000000000000000000 ) ) ;
#58 = ORIENTED_EDGE ( 'NONE', *, *, #107, .T. ) ;
#59 = APPROVAL_ROLE ( '' ) ;
#60 = PERSON_AND_ORGANIZATION ( #150, #146 ) ;
#61 = FACE_OUTER_BOUND ( 'NONE', #53, .T. ) ;
#62 = CC_DESIGN_SECURITY_CLASSIFICATION ( #143, ( #40 ) ) ;
#63 = CARTESIAN_POINT ( 'NONE',  ( -6.542022112222344969E-30, 4.000000000000000000, -1.873709602695450054E-15 ) ) ;
#64 = EDGE_LOOP ( 'NONE', ( #92 ) ) ;
#65 = CC_DESIGN_PERSON_AND_ORGANIZATION_ASSIGNMENT ( #17, #100, ( #133 ) ) ;
#66 = AXIS2_PLACEMENT_3D ( 'NONE', #147, #82, #42 ) ;
#67 = AXIS2_PLACEMENT_3D ( 'NONE', #125, #10, #138 ) ;
#68 = FACE_OUTER_BOUND ( 'NONE', #80, .T. ) ;
#69 = DIRECTION ( 'NONE',  ( -3.491481338843133355E-15, 4.408728476930471151E-16, -1.000000000000000000 ) ) ;
#70 = FACE_OUTER_BOUND ( 'NONE', #93, .T. ) ;
#71 = FACE_OUTER_BOUND ( 'NONE', #77, .T. ) ;
#72 = CIRCLE ( 'NONE', #169, 12.50000000000000000 ) ;
#73 = CYLINDRICAL_SURFACE ( 'NONE', #110, 12.50000000000000000 ) ;
#74 = PRODUCT_RELATED_PRODUCT_CATEGORY ( 'detail', '', ( #133 ) ) ;
#75 = SECURITY_CLASSIFICATION_LEVEL ( 'unclassified' ) ;
#76 = AXIS2_PLACEMENT_3D ( 'NONE', #124, #57, #97 ) ;
#77 = EDGE_LOOP ( 'NONE', ( #101 ) ) ;
#78 = MANIFOLD_SOLID_BREP ( 'Corps-Déplacer/Copier1', #114 ) ;
#79 = EDGE_CURVE ( 'NONE', #166, #166, #108, .T. ) ;
#80 = EDGE_LOOP ( 'NONE', ( #19 ) ) ;
#81 = LOCAL_TIME ( 13, 58, 45.00000000000000000, #137 ) ;
#82 = DIRECTION ( 'NONE',  ( 3.491481338843133355E-15, -4.408728476930471151E-16, 1.000000000000000000 ) ) ;
#83 = DIRECTION ( 'NONE',  ( -3.491481338843133355E-15, 4.408728476930471151E-16, -1.000000000000000000 ) ) ;
#84 = ADVANCED_FACE ( 'NONE', ( #68, #31 ), #6, .F. ) ;
#85 = DATE_TIME_ROLE ( 'creation_date' ) ;
#86 = PERSON_AND_ORGANIZATION ( #150, #146 ) ;
#87 = DIRECTION ( 'NONE',  ( 1.539299320522905028E-30, 1.000000000000000000, 4.408728476930471644E-16 ) ) ;
#88 = APPROVAL_DATE_TIME ( #106, #98 ) ;
#89 = PERSON_AND_ORGANIZATION ( #150, #146 ) ;
#90 = COORDINATED_UNIVERSAL_TIME_OFFSET ( 1, 0, .AHEAD. ) ;
#91 = APPROVAL_PERSON_ORGANIZATION ( #89, #16, #35 ) ;
#92 = ORIENTED_EDGE ( 'NONE', *, *, #111, .F. ) ;
#93 = EDGE_LOOP ( 'NONE', ( #156 ) ) ;
#94 = PRODUCT_DEFINITION_SHAPE ( 'NONE', 'NONE',  #49 ) ;
#95 = DESIGN_CONTEXT ( 'detailed design', #30, 'design' ) ;
#96 = CC_DESIGN_APPROVAL ( #158, ( #40 ) ) ;
#97 = DIRECTION ( 'NONE',  ( 1.540743955509788682E-30, 1.000000000000000000, 4.423544863740858091E-16 ) ) ;
#98 = APPROVAL ( #23, 'UNSPECIFIED' ) ;
#99 = DIRECTION ( 'NONE',  ( -3.491481338843133355E-15, 4.408728476930471151E-16, -1.000000000000000000 ) ) ;
#100 = PERSON_AND_ORGANIZATION_ROLE ( 'design_owner' ) ;
#101 = ORIENTED_EDGE ( 'NONE', *, *, #79, .T. ) ;
#102 = APPROVAL_PERSON_ORGANIZATION ( #86, #158, #140 ) ;
#103 = VERTEX_POINT ( 'NONE', #36 ) ;
#104 = PLANE ( 'NONE',  #18 ) ;
#105 = CALENDAR_DATE ( 2021, 6, 12 ) ;
#106 = DATE_AND_TIME ( #127, #1 ) ;
#107 = EDGE_CURVE ( 'NONE', #103, #103, #72, .T. ) ;
#108 = CIRCLE ( 'NONE', #76, 12.50000000000000000 ) ;
#109 = CC_DESIGN_APPROVAL ( #98, ( #49 ) ) ;
#110 = AXIS2_PLACEMENT_3D ( 'NONE', #153, #129, #87 ) ;
#111 = EDGE_CURVE ( 'NONE', #162, #162, #3, .T. ) ;
#112 = FACE_BOUND ( 'NONE', #123, .T. ) ;
#113 = PERSON_AND_ORGANIZATION ( #150, #146 ) ;
#114 = CLOSED_SHELL ( 'NONE', ( #144, #139, #7, #84 ) ) ;
#115 = DIRECTION ( 'NONE',  ( 1.539299320522905028E-30, 1.000000000000000000, 4.408728476930471151E-16 ) ) ;
#116 = CALENDAR_DATE ( 2021, 6, 12 ) ;
#117 = VERTEX_POINT ( 'NONE', #37 ) ;
#118 = MECHANICAL_CONTEXT ( 'NONE', #164, 'mechanical' ) ;
#119 = CC_DESIGN_PERSON_AND_ORGANIZATION_ASSIGNMENT ( #24, #154, ( #40 ) ) ;
#120 = ORIENTED_EDGE ( 'NONE', *, *, #2, .F. ) ;
#121 = ORIENTED_EDGE ( 'NONE', *, *, #111, .T. ) ;
#122 = AXIS2_PLACEMENT_3D ( 'NONE', #22, #8, #160 ) ;
#123 = EDGE_LOOP ( 'NONE', ( #121 ) ) ;
#124 = CARTESIAN_POINT ( 'NONE',  ( 8.728703347107641103E-16, -1.102182119232593382E-16, 0.2499999999999944766 ) ) ;
#125 = CARTESIAN_POINT ( 'NONE',  ( 0.0000000000000000000, 0.0000000000000000000, 0.0000000000000000000 ) ) ;
#126 = CALENDAR_DATE ( 2021, 6, 12 ) ;
#127 = CALENDAR_DATE ( 2021, 6, 12 ) ;
#128 = FACE_BOUND ( 'NONE', #145, .T. ) ;
#129 = DIRECTION ( 'NONE',  ( -3.491481338843133355E-15, 4.408728476930471151E-16, -1.000000000000000000 ) ) ;
#130 = CC_DESIGN_PERSON_AND_ORGANIZATION_ASSIGNMENT ( #39, #152, ( #40 ) ) ;
#131 = EDGE_LOOP ( 'NONE', ( #5 ) ) ;
#132 =( GEOMETRIC_REPRESENTATION_CONTEXT ( 3 ) GLOBAL_UNCERTAINTY_ASSIGNED_CONTEXT ( ( #52 ) ) GLOBAL_UNIT_ASSIGNED_CONTEXT ( ( #43, #33, #151 ) ) REPRESENTATION_CONTEXT ( 'NONE', 'WORKASPACE' ) );
#133 = PRODUCT ( '3249', '3249', '', ( #118 ) ) ;
#134 = CARTESIAN_POINT ( 'NONE',  ( -6.157197282091619413E-30, 7.774754713319067912E-31, -1.763491390772188461E-15 ) ) ;
#135 = DIRECTION ( 'NONE',  ( 1.539299320522905028E-30, 1.000000000000000000, 4.408728476930471644E-16 ) ) ;
#136 = PERSON_AND_ORGANIZATION_ROLE ( 'classification_officer' ) ;
#137 = COORDINATED_UNIVERSAL_TIME_OFFSET ( 1, 0, .AHEAD. ) ;
#138 = DIRECTION ( 'NONE',  ( 1.000000000000000000, 0.0000000000000000000, 0.0000000000000000000 ) ) ;
#139 = ADVANCED_FACE ( 'NONE', ( #71, #70 ), #73, .T. ) ;
#140 = APPROVAL_ROLE ( '' ) ;
#141 = APPROVAL_DATE_TIME ( #44, #16 ) ;
#142 = CIRCLE ( 'NONE', #11, 4.000000000000000000 ) ;
#143 = SECURITY_CLASSIFICATION ( '', '', #75 ) ;
#144 = ADVANCED_FACE ( 'NONE', ( #61, #128 ), #104, .T. ) ;
#145 = EDGE_LOOP ( 'NONE', ( #120 ) ) ;
#146 = ORGANIZATION ( 'UNSPECIFIED', 'UNSPECIFIED', '' ) ;
#147 = CARTESIAN_POINT ( 'NONE',  ( 8.728703347107768307E-16, 4.000000000000000000, 0.2499999999999981126 ) ) ;
#148 = DIRECTION ( 'NONE',  ( 1.539299320522905028E-30, 1.000000000000000000, 4.408728476930471151E-16 ) ) ;
#149 = APPLICATION_PROTOCOL_DEFINITION ( 'international standard', 'config_control_design', 1994, #30 ) ;
#150 = PERSON ( 'UNSPECIFIED', 'UNSPECIFIED', 'UNSPECIFIED', ('UNSPECIFIED'), ('UNSPECIFIED'), ('UNSPECIFIED') ) ;
#151 =( NAMED_UNIT ( * ) SI_UNIT ( $, .STERADIAN. ) SOLID_ANGLE_UNIT ( ) );
#152 = PERSON_AND_ORGANIZATION_ROLE ( 'creator' ) ;
#153 = CARTESIAN_POINT ( 'NONE',  ( 0.0000000000000000000, 0.0000000000000000000, 0.0000000000000000000 ) ) ;
#154 = PERSON_AND_ORGANIZATION_ROLE ( 'design_supplier' ) ;
#155 = COORDINATED_UNIVERSAL_TIME_OFFSET ( 1, 0, .AHEAD. ) ;
#156 = ORIENTED_EDGE ( 'NONE', *, *, #107, .F. ) ;
#157 = CC_DESIGN_APPROVAL ( #16, ( #143 ) ) ;
#158 = APPROVAL ( #26, 'UNSPECIFIED' ) ;
#159 = CARTESIAN_POINT ( 'NONE',  ( 0.0000000000000000000, 0.0000000000000000000, 0.0000000000000000000 ) ) ;
#160 = DIRECTION ( 'NONE',  ( 1.540743955509788682E-30, 1.000000000000000000, 4.472333961502705790E-16 ) ) ;
#161 = PLANE ( 'NONE',  #66 ) ;
#162 = VERTEX_POINT ( 'NONE', #47 ) ;
#163 = PERSON_AND_ORGANIZATION_ROLE ( 'creator' ) ;
#164 = APPLICATION_CONTEXT ( 'configuration controlled 3d designs of mechanical parts and assemblies' ) ;
#165 = LOCAL_TIME ( 13, 58, 45.00000000000000000, #155 ) ;
#166 = VERTEX_POINT ( 'NONE', #45 ) ;
#167 = APPROVAL_DATE_TIME ( #28, #158 ) ;
#168 = SHAPE_DEFINITION_REPRESENTATION ( #94, #56 ) ;
#169 = AXIS2_PLACEMENT_3D ( 'NONE', #32, #83, #135 ) ;
ENDSEC;
END-ISO-10303-21;
