ISO-10303-21;
HEADER;
FILE_DESCRIPTION (( 'STEP AP203' ),
    '1' );
FILE_NAME ('32489.step',
    '2021-11-12T07:47:32',
    ( '' ),
    ( '' ),
    'SwSTEP 2.0',
    'SolidWorks 2019',
    '' );
FILE_SCHEMA (( 'CONFIG_CONTROL_DESIGN' ));
ENDSEC;

DATA;
#1 = COORDINATED_UNIVERSAL_TIME_OFFSET ( 1, 0, .AHEAD. ) ;
#2 = DIRECTION ( 'NONE',  ( -3.491481338843133355E-15, 1.224646799147353207E-16, -1.000000000000000000 ) ) ;
#3 = PRODUCT ( '32489', '32489', '', ( #89 ) ) ;
#4 = CARTESIAN_POINT ( 'NONE',  ( 6.982962677686249947E-16, -2.449293598294700375E-17, 0.1999999999999995115 ) ) ;
#5 = PLANE ( 'NONE',  #87 ) ;
#6 = DIRECTION ( 'NONE',  ( 4.275831445896958607E-31, 1.000000000000000000, 1.224646799147353207E-16 ) ) ;
#7 = CC_DESIGN_PERSON_AND_ORGANIZATION_ASSIGNMENT ( #129, #60, ( #75 ) ) ;
#8 = SECURITY_CLASSIFICATION ( '', '', #179 ) ;
#9 = VERTEX_POINT ( 'NONE', #213 ) ;
#10 = AXIS2_PLACEMENT_3D ( 'NONE', #115, #164, #149 ) ;
#11 = ADVANCED_BREP_SHAPE_REPRESENTATION ( '32489', ( #72, #71, #121 ), #93 ) ;
#12 = ADVANCED_FACE ( 'NONE', ( #44, #104 ), #31, .T. ) ;
#13 = CIRCLE ( 'NONE', #126, 4.000000000000000000 ) ;
#14 = ORIENTED_EDGE ( 'NONE', *, *, #52, .T. ) ;
#15 = CC_DESIGN_DATE_AND_TIME_ASSIGNMENT ( #131, #37, ( #8 ) ) ;
#16 = DIRECTION ( 'NONE',  ( 0.0000000000000000000, 0.0000000000000000000, 1.000000000000000000 ) ) ;
#17 = PERSON_AND_ORGANIZATION_ROLE ( 'creator' ) ;
#18 = CARTESIAN_POINT ( 'NONE',  ( 8.728703347107833388E-14, -3.061616997868383043E-15, 25.00000000000000000 ) ) ;
#19 = APPROVAL_ROLE ( '' ) ;
#20 = APPROVAL_PERSON_ORGANIZATION ( #32, #30, #19 ) ;
#21 = EDGE_CURVE ( 'NONE', #192, #192, #212, .T. ) ;
#22 = CALENDAR_DATE ( 2021, 12, 11 ) ;
#23 = DIRECTION ( 'NONE',  ( 0.0000000000000000000, 1.000000000000000000, 0.0000000000000000000 ) ) ;
#24 = PRODUCT_DEFINITION ( 'UNKNOWN', '', #75, #139 ) ;
#25 = DIRECTION ( 'NONE',  ( -3.491481338843133355E-15, 1.224646799147353207E-16, -1.000000000000000000 ) ) ;
#26 = CARTESIAN_POINT ( 'NONE',  ( 0.0000000000000000000, 3.799999999999999822, 0.0000000000000000000 ) ) ;
#27 = DATE_TIME_ROLE ( 'creation_date' ) ;
#28 = ORIENTED_EDGE ( 'NONE', *, *, #21, .T. ) ;
#29 = AXIS2_PLACEMENT_3D ( 'NONE', #138, #211, #118 ) ;
#30 = APPROVAL ( #165, 'UNSPECIFIED' ) ;
#31 = CYLINDRICAL_SURFACE ( 'NONE', #83, 4.000000000000000000 ) ;
#32 = PERSON_AND_ORGANIZATION ( #110, #137 ) ;
#33 = EDGE_LOOP ( 'NONE', ( #158 ) ) ;
#34 = CARTESIAN_POINT ( 'NONE',  ( 2.618611004132350143E-13, 3.499999999999996003, 75.00000000000000000 ) ) ;
#35 = AXIS2_PLACEMENT_3D ( 'NONE', #186, #200, #79 ) ;
#36 = DIRECTION ( 'NONE',  ( -3.491481338843133355E-15, 1.224646799147353207E-16, -1.000000000000000000 ) ) ;
#37 = DATE_TIME_ROLE ( 'classification_date' ) ;
#38 = AXIS2_PLACEMENT_3D ( 'NONE', #63, #130, #23 ) ;
#39 = DIRECTION ( 'NONE',  ( 3.491481338843133355E-15, -1.224646799147353207E-16, 1.000000000000000000 ) ) ;
#40 = VERTEX_POINT ( 'NONE', #85 ) ;
#41 = CC_DESIGN_APPROVAL ( #30, ( #75 ) ) ;
#42 = UNCERTAINTY_MEASURE_WITH_UNIT (LENGTH_MEASURE( 1.000000000000000082E-05 ), #198, 'distance_accuracy_value', 'NONE');
#43 = LOCAL_TIME ( 8, 47, 32.00000000000000000, #111 ) ;
#44 = FACE_OUTER_BOUND ( 'NONE', #90, .T. ) ;
#45 = CIRCLE ( 'NONE', #167, 4.000000000000000000 ) ;
#46 = DATE_AND_TIME ( #113, #159 ) ;
#47 = CC_DESIGN_PERSON_AND_ORGANIZATION_ASSIGNMENT ( #57, #17, ( #24 ) ) ;
#48 = PLANE ( 'NONE',  #10 ) ;
#49 = FACE_OUTER_BOUND ( 'NONE', #214, .T. ) ;
#50 = DIRECTION ( 'NONE',  ( -3.491481338843133355E-15, 1.224646799147353207E-16, -1.000000000000000000 ) ) ;
#51 = SHAPE_DEFINITION_REPRESENTATION ( #132, #11 ) ;
#52 = EDGE_CURVE ( 'NONE', #40, #40, #13, .T. ) ;
#53 = VERTEX_POINT ( 'NONE', #96 ) ;
#54 = ADVANCED_FACE ( 'NONE', ( #65, #189 ), #94, .T. ) ;
#55 = VERTEX_POINT ( 'NONE', #176 ) ;
#56 = DIRECTION ( 'NONE',  ( 4.275831445896958607E-31, 1.000000000000000000, 1.224646799147353207E-16 ) ) ;
#57 = PERSON_AND_ORGANIZATION ( #110, #137 ) ;
#58 = AXIS2_PLACEMENT_3D ( 'NONE', #4, #66, #205 ) ;
#59 = EDGE_LOOP ( 'NONE', ( #28 ) ) ;
#60 = PERSON_AND_ORGANIZATION_ROLE ( 'creator' ) ;
#61 = DIRECTION ( 'NONE',  ( 0.0000000000000000000, 1.000000000000000000, 0.0000000000000000000 ) ) ;
#62 = COORDINATED_UNIVERSAL_TIME_OFFSET ( 1, 0, .AHEAD. ) ;
#63 = CARTESIAN_POINT ( 'NONE',  ( 2.601153597438134539E-13, -9.123618653647782737E-15, 74.50000000000001421 ) ) ;
#64 = CALENDAR_DATE ( 2021, 12, 11 ) ;
#65 = FACE_OUTER_BOUND ( 'NONE', #216, .T. ) ;
#66 = DIRECTION ( 'NONE',  ( -3.491481338843133355E-15, 1.224646799147353207E-16, -1.000000000000000000 ) ) ;
#67 = CC_DESIGN_SECURITY_CLASSIFICATION ( #8, ( #75 ) ) ;
#68 = DIRECTION ( 'NONE',  ( 4.275831445896958607E-31, 1.000000000000000000, 1.224646799147353454E-16 ) ) ;
#69 = APPROVAL_PERSON_ORGANIZATION ( #185, #193, #190 ) ;
#70 = CIRCLE ( 'NONE', #58, 4.000000000000000000 ) ;
#71 = MANIFOLD_SOLID_BREP ( 'Corps-Déplacer/Copier1[2]', #105 ) ;
#72 = MANIFOLD_SOLID_BREP ( 'Corps-Déplacer/Copier1[1]', #106 ) ;
#73 = APPLICATION_CONTEXT ( 'configuration controlled 3d designs of mechanical parts and assemblies' ) ;
#74 = CARTESIAN_POINT ( 'NONE',  ( 0.0000000000000000000, 0.0000000000000000000, 0.0000000000000000000 ) ) ;
#75 = PRODUCT_DEFINITION_FORMATION_WITH_SPECIFIED_SOURCE ( 'ANY', '', #3, .NOT_KNOWN. ) ;
#76 = COORDINATED_UNIVERSAL_TIME_OFFSET ( 1, 0, .AHEAD. ) ;
#77 = CALENDAR_DATE ( 2021, 12, 11 ) ;
#78 = DIRECTION ( 'NONE',  ( -4.275831445896958607E-31, -1.000000000000000000, -1.224646799147353207E-16 ) ) ;
#79 = DIRECTION ( 'NONE',  ( -4.275831445896958607E-31, -1.000000000000000000, -1.224646799147353454E-16 ) ) ;
#80 = CC_DESIGN_APPROVAL ( #193, ( #8 ) ) ;
#81 = PERSON_AND_ORGANIZATION_ROLE ( 'design_supplier' ) ;
#82 = FACE_OUTER_BOUND ( 'NONE', #33, .T. ) ;
#83 = AXIS2_PLACEMENT_3D ( 'NONE', #74, #218, #56 ) ;
#84 = CARTESIAN_POINT ( 'NONE',  ( 2.618611004132350143E-13, 2.624579619658241508E-32, 75.00000000000000000 ) ) ;
#85 = CARTESIAN_POINT ( 'NONE',  ( 8.728703347107833388E-14, 3.999999999999996447, 25.00000000000000000 ) ) ;
#86 = CC_DESIGN_PERSON_AND_ORGANIZATION_ASSIGNMENT ( #146, #150, ( #8 ) ) ;
#87 = AXIS2_PLACEMENT_3D ( 'NONE', #84, #154, #6 ) ;
#88 = EDGE_LOOP ( 'NONE', ( #160 ) ) ;
#89 = MECHANICAL_CONTEXT ( 'NONE', #148, 'mechanical' ) ;
#90 = EDGE_LOOP ( 'NONE', ( #14 ) ) ;
#91 = VERTEX_POINT ( 'NONE', #34 ) ;
#92 = ORIENTED_EDGE ( 'NONE', *, *, #116, .T. ) ;
#93 =( GEOMETRIC_REPRESENTATION_CONTEXT ( 3 ) GLOBAL_UNCERTAINTY_ASSIGNED_CONTEXT ( ( #42 ) ) GLOBAL_UNIT_ASSIGNED_CONTEXT ( ( #198, #223, #203 ) ) REPRESENTATION_CONTEXT ( 'NONE', 'WORKASPACE' ) );
#94 = CONICAL_SURFACE ( 'NONE', #35, 3.799999999999999822, 0.7853981633974485010 ) ;
#95 = CARTESIAN_POINT ( 'NONE',  ( 8.728703347107833388E-14, -3.061616997868383043E-15, 25.00000000000000000 ) ) ;
#96 = CARTESIAN_POINT ( 'NONE',  ( 2.601153597438134539E-13, 3.999999999999989786, 74.50000000000001421 ) ) ;
#97 = DIRECTION ( 'NONE',  ( 0.0000000000000000000, 1.000000000000000000, 0.0000000000000000000 ) ) ;
#98 = APPROVAL_STATUS ( 'not_yet_approved' ) ;
#99 = DIRECTION ( 'NONE',  ( 4.275831445896958607E-31, 1.000000000000000000, 1.224646799147353207E-16 ) ) ;
#100 = AXIS2_PLACEMENT_3D ( 'NONE', #191, #39, #209 ) ;
#101 = FACE_OUTER_BOUND ( 'NONE', #142, .T. ) ;
#102 = ADVANCED_FACE ( 'NONE', ( #101, #183 ), #135, .T. ) ;
#103 = PERSON_AND_ORGANIZATION ( #110, #137 ) ;
#104 = FACE_OUTER_BOUND ( 'NONE', #221, .T. ) ;
#105 = CLOSED_SHELL ( 'NONE', ( #117, #54, #12, #141 ) ) ;
#106 = CLOSED_SHELL ( 'NONE', ( #184, #102, #202, #215 ) ) ;
#107 = AXIS2_PLACEMENT_3D ( 'NONE', #196, #180, #68 ) ;
#108 = PERSON_AND_ORGANIZATION_ROLE ( 'design_owner' ) ;
#109 = ORIENTED_EDGE ( 'NONE', *, *, #125, .F. ) ;
#110 = PERSON ( 'UNSPECIFIED', 'UNSPECIFIED', 'UNSPECIFIED', ('UNSPECIFIED'), ('UNSPECIFIED'), ('UNSPECIFIED') ) ;
#111 = COORDINATED_UNIVERSAL_TIME_OFFSET ( 1, 0, .AHEAD. ) ;
#112 = ORIENTED_EDGE ( 'NONE', *, *, #219, .F. ) ;
#113 = CALENDAR_DATE ( 2021, 12, 11 ) ;
#114 = APPROVAL_ROLE ( '' ) ;
#115 = CARTESIAN_POINT ( 'NONE',  ( -8.124079747204221177E-31, 2.849543587057529455E-32, -2.326828918379971365E-16 ) ) ;
#116 = EDGE_CURVE ( 'NONE', #9, #9, #45, .T. ) ;
#117 = ADVANCED_FACE ( 'NONE', ( #204 ), #48, .T. ) ;
#118 = DIRECTION ( 'NONE',  ( 0.0000000000000000000, 1.000000000000000000, 0.0000000000000000000 ) ) ;
#119 = FACE_OUTER_BOUND ( 'NONE', #161, .T. ) ;
#120 = APPROVAL ( #220, 'UNSPECIFIED' ) ;
#121 = AXIS2_PLACEMENT_3D ( 'NONE', #163, #16, #201 ) ;
#122 = ORIENTED_EDGE ( 'NONE', *, *, #162, .F. ) ;
#123 = LOCAL_TIME ( 8, 47, 32.00000000000000000, #187 ) ;
#124 = EDGE_LOOP ( 'NONE', ( #112 ) ) ;
#125 = EDGE_CURVE ( 'NONE', #53, #53, #188, .T. ) ;
#126 = AXIS2_PLACEMENT_3D ( 'NONE', #18, #2, #61 ) ;
#127 = AXIS2_PLACEMENT_3D ( 'NONE', #155, #25, #170 ) ;
#128 = APPLICATION_PROTOCOL_DEFINITION ( 'international standard', 'config_control_design', 1994, #73 ) ;
#129 = PERSON_AND_ORGANIZATION ( #110, #137 ) ;
#130 = DIRECTION ( 'NONE',  ( -3.491481338843133355E-15, 1.224646799147353207E-16, -1.000000000000000000 ) ) ;
#131 = DATE_AND_TIME ( #64, #166 ) ;
#132 = PRODUCT_DEFINITION_SHAPE ( 'NONE', 'NONE',  #24 ) ;
#133 = CC_DESIGN_APPROVAL ( #120, ( #24 ) ) ;
#134 = DATE_AND_TIME ( #22, #123 ) ;
#135 = CYLINDRICAL_SURFACE ( 'NONE', #181, 4.000000000000000000 ) ;
#136 = CC_DESIGN_PERSON_AND_ORGANIZATION_ASSIGNMENT ( #199, #81, ( #75 ) ) ;
#137 = ORGANIZATION ( 'UNSPECIFIED', 'UNSPECIFIED', '' ) ;
#138 = CARTESIAN_POINT ( 'NONE',  ( 2.618611004132350143E-13, -9.184850993605148733E-15, 75.00000000000000000 ) ) ;
#139 = DESIGN_CONTEXT ( 'detailed design', #73, 'design' ) ;
#140 = ORIENTED_EDGE ( 'NONE', *, *, #125, .T. ) ;
#141 = ADVANCED_FACE ( 'NONE', ( #82 ), #151, .T. ) ;
#142 = EDGE_LOOP ( 'NONE', ( #140 ) ) ;
#143 = ORIENTED_EDGE ( 'NONE', *, *, #219, .T. ) ;
#144 = APPLICATION_PROTOCOL_DEFINITION ( 'international standard', 'config_control_design', 1994, #148 ) ;
#145 = DATE_AND_TIME ( #77, #174 ) ;
#146 = PERSON_AND_ORGANIZATION ( #110, #137 ) ;
#147 = CC_DESIGN_DATE_AND_TIME_ASSIGNMENT ( #172, #27, ( #24 ) ) ;
#148 = APPLICATION_CONTEXT ( 'configuration controlled 3d designs of mechanical parts and assemblies' ) ;
#149 = DIRECTION ( 'NONE',  ( 4.275831445896958607E-31, 1.000000000000000000, 1.224646799147353207E-16 ) ) ;
#150 = PERSON_AND_ORGANIZATION_ROLE ( 'classification_officer' ) ;
#151 = PLANE ( 'NONE',  #156 ) ;
#152 = CARTESIAN_POINT ( 'NONE',  ( 8.728703347107833388E-14, 2.999519565323710837E-32, 25.00000000000000000 ) ) ;
#153 = FACE_BOUND ( 'NONE', #157, .T. ) ;
#154 = DIRECTION ( 'NONE',  ( -3.491481338843133355E-15, 1.224646799147353207E-16, -1.000000000000000000 ) ) ;
#155 = CARTESIAN_POINT ( 'NONE',  ( 2.601153597438134539E-13, -9.123618653647782737E-15, 74.50000000000001421 ) ) ;
#156 = AXIS2_PLACEMENT_3D ( 'NONE', #152, #168, #78 ) ;
#157 = EDGE_LOOP ( 'NONE', ( #143 ) ) ;
#158 = ORIENTED_EDGE ( 'NONE', *, *, #52, .F. ) ;
#159 = LOCAL_TIME ( 8, 47, 32.00000000000000000, #76 ) ;
#160 = ORIENTED_EDGE ( 'NONE', *, *, #116, .F. ) ;
#161 = EDGE_LOOP ( 'NONE', ( #109 ) ) ;
#162 = EDGE_CURVE ( 'NONE', #55, #55, #70, .T. ) ;
#163 = CARTESIAN_POINT ( 'NONE',  ( 0.0000000000000000000, 0.0000000000000000000, 0.0000000000000000000 ) ) ;
#164 = DIRECTION ( 'NONE',  ( -3.491481338843133355E-15, 1.224646799147353207E-16, -1.000000000000000000 ) ) ;
#165 = APPROVAL_STATUS ( 'not_yet_approved' ) ;
#166 = LOCAL_TIME ( 8, 47, 32.00000000000000000, #1 ) ;
#167 = AXIS2_PLACEMENT_3D ( 'NONE', #95, #50, #97 ) ;
#168 = DIRECTION ( 'NONE',  ( 3.491481338843133355E-15, -1.224646799147353207E-16, 1.000000000000000000 ) ) ;
#169 = APPROVAL_DATE_TIME ( #134, #193 ) ;
#170 = DIRECTION ( 'NONE',  ( 0.0000000000000000000, 1.000000000000000000, 0.0000000000000000000 ) ) ;
#171 = FACE_OUTER_BOUND ( 'NONE', #124, .T. ) ;
#172 = DATE_AND_TIME ( #177, #43 ) ;
#173 = PRODUCT_RELATED_PRODUCT_CATEGORY ( 'detail', '', ( #3 ) ) ;
#174 = LOCAL_TIME ( 8, 47, 32.00000000000000000, #62 ) ;
#175 = ORIENTED_EDGE ( 'NONE', *, *, #162, .T. ) ;
#176 = CARTESIAN_POINT ( 'NONE',  ( 6.982962677686267697E-16, 4.000000000000000000, 0.2000000000000000111 ) ) ;
#177 = CALENDAR_DATE ( 2021, 12, 11 ) ;
#178 = ORIENTED_EDGE ( 'NONE', *, *, #21, .F. ) ;
#179 = SECURITY_CLASSIFICATION_LEVEL ( 'unclassified' ) ;
#180 = DIRECTION ( 'NONE',  ( -3.491481338843133355E-15, 1.224646799147353207E-16, -1.000000000000000000 ) ) ;
#181 = AXIS2_PLACEMENT_3D ( 'NONE', #206, #36, #99 ) ;
#182 = APPROVAL_DATE_TIME ( #46, #120 ) ;
#183 = FACE_OUTER_BOUND ( 'NONE', #88, .T. ) ;
#184 = ADVANCED_FACE ( 'NONE', ( #49 ), #208, .F. ) ;
#185 = PERSON_AND_ORGANIZATION ( #110, #137 ) ;
#186 = CARTESIAN_POINT ( 'NONE',  ( -1.624815949440844235E-30, 5.699087174115058910E-32, -4.653657836759942730E-16 ) ) ;
#187 = COORDINATED_UNIVERSAL_TIME_OFFSET ( 1, 0, .AHEAD. ) ;
#188 = CIRCLE ( 'NONE', #38, 3.999999999999999112 ) ;
#189 = FACE_BOUND ( 'NONE', #195, .T. ) ;
#190 = APPROVAL_ROLE ( '' ) ;
#191 = CARTESIAN_POINT ( 'NONE',  ( 8.728703347107833388E-14, 2.999519565323710837E-32, 25.00000000000000000 ) ) ;
#192 = VERTEX_POINT ( 'NONE', #26 ) ;
#193 = APPROVAL ( #98, 'UNSPECIFIED' ) ;
#194 = CC_DESIGN_PERSON_AND_ORGANIZATION_ASSIGNMENT ( #217, #108, ( #3 ) ) ;
#195 = EDGE_LOOP ( 'NONE', ( #178 ) ) ;
#196 = CARTESIAN_POINT ( 'NONE',  ( -1.624815949440844235E-30, 5.699087174115058910E-32, -4.653657836759942730E-16 ) ) ;
#197 = CONICAL_SURFACE ( 'NONE', #127, 3.999999999999999112, 0.7853981633974557175 ) ;
#198 =( LENGTH_UNIT ( ) NAMED_UNIT ( * ) SI_UNIT ( .MILLI., .METRE. ) );
#199 = PERSON_AND_ORGANIZATION ( #110, #137 ) ;
#200 = DIRECTION ( 'NONE',  ( 3.491481338843133355E-15, -1.224646799147353207E-16, 1.000000000000000000 ) ) ;
#201 = DIRECTION ( 'NONE',  ( 1.000000000000000000, 0.0000000000000000000, 0.0000000000000000000 ) ) ;
#202 = ADVANCED_FACE ( 'NONE', ( #153, #119 ), #197, .T. ) ;
#203 =( NAMED_UNIT ( * ) SI_UNIT ( $, .STERADIAN. ) SOLID_ANGLE_UNIT ( ) );
#204 = FACE_OUTER_BOUND ( 'NONE', #59, .T. ) ;
#205 = DIRECTION ( 'NONE',  ( 4.333342374871280669E-31, 1.000000000000000000, 1.219727444046192488E-16 ) ) ;
#206 = CARTESIAN_POINT ( 'NONE',  ( 0.0000000000000000000, 0.0000000000000000000, 0.0000000000000000000 ) ) ;
#207 = CIRCLE ( 'NONE', #29, 3.500000000000005329 ) ;
#208 = PLANE ( 'NONE',  #100 ) ;
#209 = DIRECTION ( 'NONE',  ( -4.275831445896958607E-31, -1.000000000000000000, -1.224646799147353207E-16 ) ) ;
#210 = APPROVAL_PERSON_ORGANIZATION ( #103, #120, #114 ) ;
#211 = DIRECTION ( 'NONE',  ( -3.491481338843133355E-15, 1.224646799147353207E-16, -1.000000000000000000 ) ) ;
#212 = CIRCLE ( 'NONE', #107, 3.799999999999999822 ) ;
#213 = CARTESIAN_POINT ( 'NONE',  ( 8.728703347107833388E-14, 3.999999999999996447, 25.00000000000000000 ) ) ;
#214 = EDGE_LOOP ( 'NONE', ( #92 ) ) ;
#215 = ADVANCED_FACE ( 'NONE', ( #171 ), #5, .F. ) ;
#216 = EDGE_LOOP ( 'NONE', ( #175 ) ) ;
#217 = PERSON_AND_ORGANIZATION ( #110, #137 ) ;
#218 = DIRECTION ( 'NONE',  ( -3.491481338843133355E-15, 1.224646799147353207E-16, -1.000000000000000000 ) ) ;
#219 = EDGE_CURVE ( 'NONE', #91, #91, #207, .T. ) ;
#220 = APPROVAL_STATUS ( 'not_yet_approved' ) ;
#221 = EDGE_LOOP ( 'NONE', ( #122 ) ) ;
#222 = APPROVAL_DATE_TIME ( #145, #30 ) ;
#223 =( NAMED_UNIT ( * ) PLANE_ANGLE_UNIT ( ) SI_UNIT ( $, .RADIAN. ) );
ENDSEC;
END-ISO-10303-21;
