ISO-10303-21;
HEADER;
FILE_DESCRIPTION (( 'STEP AP203' ),
    '1' );
FILE_NAME ('32488.step',
    '2021-11-12T07:47:32',
    ( '' ),
    ( '' ),
    'SwSTEP 2.0',
    'SolidWorks 2019',
    '' );
FILE_SCHEMA (( 'CONFIG_CONTROL_DESIGN' ));
ENDSEC;

DATA;
#1 = CONICAL_SURFACE ( 'NONE', #81, 3.499999999999984457, 0.7853981633974415066 ) ;
#2 = SHAPE_DEFINITION_REPRESENTATION ( #83, #185 ) ;
#3 = DIRECTION ( 'NONE',  ( -3.491481338843133355E-15, 1.224646799147353207E-16, -1.000000000000000000 ) ) ;
#4 = APPROVAL_PERSON_ORGANIZATION ( #200, #98, #188 ) ;
#5 = CALENDAR_DATE ( 2021, 12, 11 ) ;
#6 = DIRECTION ( 'NONE',  ( 0.0000000000000000000, 1.000000000000000000, 0.0000000000000000000 ) ) ;
#7 = EDGE_LOOP ( 'NONE', ( #49 ) ) ;
#8 = PERSON_AND_ORGANIZATION ( #90, #100 ) ;
#9 = ADVANCED_FACE ( 'NONE', ( #136, #51 ), #201, .T. ) ;
#10 = CARTESIAN_POINT ( 'NONE',  ( 6.982962677686251919E-16, -2.449293598294700991E-17, 0.1999999999999995670 ) ) ;
#11 = DIRECTION ( 'NONE',  ( 4.275831445896958607E-31, 1.000000000000000000, 1.224646799147353207E-16 ) ) ;
#12 = LOCAL_TIME ( 8, 47, 32.00000000000000000, #179 ) ;
#13 = ORIENTED_EDGE ( 'NONE', *, *, #50, .T. ) ;
#14 = CARTESIAN_POINT ( 'NONE',  ( 6.982962677686267697E-16, 3.500000000000000000, 0.2000000000000000111 ) ) ;
#15 = DIRECTION ( 'NONE',  ( -3.491481338843133355E-15, 1.224646799147353207E-16, -1.000000000000000000 ) ) ;
#16 = DIRECTION ( 'NONE',  ( -3.491481338843133355E-15, 1.224646799147353207E-16, -1.000000000000000000 ) ) ;
#17 = DIRECTION ( 'NONE',  ( 4.275831445896958607E-31, 1.000000000000000000, 1.224646799147353207E-16 ) ) ;
#18 = CARTESIAN_POINT ( 'NONE',  ( 2.618611004132349638E-13, 2.999999999999995559, 74.99999999999998579 ) ) ;
#19 = CLOSED_SHELL ( 'NONE', ( #28, #118, #151, #222 ) ) ;
#20 = AXIS2_PLACEMENT_3D ( 'NONE', #97, #60, #35 ) ;
#21 = APPROVAL_DATE_TIME ( #203, #102 ) ;
#22 = CC_DESIGN_PERSON_AND_ORGANIZATION_ASSIGNMENT ( #168, #156, ( #165 ) ) ;
#23 = APPROVAL_PERSON_ORGANIZATION ( #89, #102, #34 ) ;
#24 = PLANE ( 'NONE',  #121 ) ;
#25 = FACE_BOUND ( 'NONE', #215, .T. ) ;
#26 = APPROVAL_PERSON_ORGANIZATION ( #113, #132, #111 ) ;
#27 =( NAMED_UNIT ( * ) PLANE_ANGLE_UNIT ( ) SI_UNIT ( $, .RADIAN. ) );
#28 = ADVANCED_FACE ( 'NONE', ( #42 ), #163, .F. ) ;
#29 = CC_DESIGN_APPROVAL ( #98, ( #64 ) ) ;
#30 =( LENGTH_UNIT ( ) NAMED_UNIT ( * ) SI_UNIT ( .MILLI., .METRE. ) );
#31 = CC_DESIGN_PERSON_AND_ORGANIZATION_ASSIGNMENT ( #8, #174, ( #219 ) ) ;
#32 = CONICAL_SURFACE ( 'NONE', #213, 3.299999999999999822, 0.7853981633974485010 ) ;
#33 = FACE_OUTER_BOUND ( 'NONE', #195, .T. ) ;
#34 = APPROVAL_ROLE ( '' ) ;
#35 = DIRECTION ( 'NONE',  ( -4.275831445896958607E-31, -1.000000000000000000, -1.224646799147353207E-16 ) ) ;
#36 = CC_DESIGN_APPROVAL ( #132, ( #219 ) ) ;
#37 = PERSON_AND_ORGANIZATION_ROLE ( 'design_supplier' ) ;
#38 = CYLINDRICAL_SURFACE ( 'NONE', #70, 3.499999999999992450 ) ;
#39 = CALENDAR_DATE ( 2021, 12, 11 ) ;
#40 = FACE_OUTER_BOUND ( 'NONE', #143, .T. ) ;
#41 = CC_DESIGN_PERSON_AND_ORGANIZATION_ASSIGNMENT ( #170, #220, ( #64 ) ) ;
#42 = FACE_OUTER_BOUND ( 'NONE', #152, .T. ) ;
#43 = SECURITY_CLASSIFICATION_LEVEL ( 'unclassified' ) ;
#44 = FACE_OUTER_BOUND ( 'NONE', #158, .T. ) ;
#45 = ORIENTED_EDGE ( 'NONE', *, *, #50, .F. ) ;
#46 = DESIGN_CONTEXT ( 'detailed design', #47, 'design' ) ;
#47 = APPLICATION_CONTEXT ( 'configuration controlled 3d designs of mechanical parts and assemblies' ) ;
#48 = CIRCLE ( 'NONE', #91, 3.500000000000000000 ) ;
#49 = ORIENTED_EDGE ( 'NONE', *, *, #75, .T. ) ;
#50 = EDGE_CURVE ( 'NONE', #140, #140, #68, .T. ) ;
#51 = FACE_OUTER_BOUND ( 'NONE', #52, .T. ) ;
#52 = EDGE_LOOP ( 'NONE', ( #71 ) ) ;
#53 = DIRECTION ( 'NONE',  ( 4.275831445896958607E-31, 1.000000000000000000, 1.224646799147353207E-16 ) ) ;
#54 = AXIS2_PLACEMENT_3D ( 'NONE', #126, #155, #93 ) ;
#55 = ORIENTED_EDGE ( 'NONE', *, *, #109, .F. ) ;
#56 = COORDINATED_UNIVERSAL_TIME_OFFSET ( 1, 0, .AHEAD. ) ;
#57 = VERTEX_POINT ( 'NONE', #14 ) ;
#58 = CARTESIAN_POINT ( 'NONE',  ( 0.0000000000000000000, 0.0000000000000000000, 0.0000000000000000000 ) ) ;
#59 = CARTESIAN_POINT ( 'NONE',  ( 0.0000000000000000000, 0.0000000000000000000, 0.0000000000000000000 ) ) ;
#60 = DIRECTION ( 'NONE',  ( 3.491481338843133355E-15, -1.224646799147353207E-16, 1.000000000000000000 ) ) ;
#61 = CC_DESIGN_APPROVAL ( #102, ( #160 ) ) ;
#62 = CC_DESIGN_DATE_AND_TIME_ASSIGNMENT ( #127, #206, ( #219 ) ) ;
#63 = EDGE_LOOP ( 'NONE', ( #162 ) ) ;
#64 = PRODUCT_DEFINITION ( 'UNKNOWN', '', #160, #46 ) ;
#65 =( GEOMETRIC_REPRESENTATION_CONTEXT ( 3 ) GLOBAL_UNCERTAINTY_ASSIGNED_CONTEXT ( ( #134 ) ) GLOBAL_UNIT_ASSIGNED_CONTEXT ( ( #30, #27, #85 ) ) REPRESENTATION_CONTEXT ( 'NONE', 'WORKASPACE' ) );
#66 = CARTESIAN_POINT ( 'NONE',  ( 7.681258945454893382E-14, 2.624579619658247529E-32, 22.00000000000000000 ) ) ;
#67 = DIRECTION ( 'NONE',  ( 4.275831445896958607E-31, 1.000000000000000000, 1.224646799147353207E-16 ) ) ;
#68 = CIRCLE ( 'NONE', #192, 3.499999999999984457 ) ;
#69 = DIRECTION ( 'NONE',  ( 0.0000000000000000000, 0.0000000000000000000, 1.000000000000000000 ) ) ;
#70 = AXIS2_PLACEMENT_3D ( 'NONE', #146, #3, #157 ) ;
#71 = ORIENTED_EDGE ( 'NONE', *, *, #194, .F. ) ;
#72 = FACE_OUTER_BOUND ( 'NONE', #63, .T. ) ;
#73 = MECHANICAL_CONTEXT ( 'NONE', #82, 'mechanical' ) ;
#74 = DATE_AND_TIME ( #184, #115 ) ;
#75 = EDGE_CURVE ( 'NONE', #167, #167, #176, .T. ) ;
#76 = AXIS2_PLACEMENT_3D ( 'NONE', #149, #207, #11 ) ;
#77 = MANIFOLD_SOLID_BREP ( 'Corps-Déplacer/Copier1[1]', #19 ) ;
#78 = PERSON_AND_ORGANIZATION ( #90, #100 ) ;
#79 = EDGE_CURVE ( 'NONE', #137, #137, #205, .T. ) ;
#80 = EDGE_LOOP ( 'NONE', ( #169 ) ) ;
#81 = AXIS2_PLACEMENT_3D ( 'NONE', #178, #161, #6 ) ;
#82 = APPLICATION_CONTEXT ( 'configuration controlled 3d designs of mechanical parts and assemblies' ) ;
#83 = PRODUCT_DEFINITION_SHAPE ( 'NONE', 'NONE',  #64 ) ;
#84 = AXIS2_PLACEMENT_3D ( 'NONE', #171, #15, #53 ) ;
#85 =( NAMED_UNIT ( * ) SI_UNIT ( $, .STERADIAN. ) SOLID_ANGLE_UNIT ( ) );
#86 = EDGE_LOOP ( 'NONE', ( #131 ) ) ;
#87 = DIRECTION ( 'NONE',  ( -4.275831445896958607E-31, -1.000000000000000000, -1.224646799147353207E-16 ) ) ;
#88 = CARTESIAN_POINT ( 'NONE',  ( 0.0000000000000000000, 3.299999999999999822, 0.0000000000000000000 ) ) ;
#89 = PERSON_AND_ORGANIZATION ( #90, #100 ) ;
#90 = PERSON ( 'UNSPECIFIED', 'UNSPECIFIED', 'UNSPECIFIED', ('UNSPECIFIED'), ('UNSPECIFIED'), ('UNSPECIFIED') ) ;
#91 = AXIS2_PLACEMENT_3D ( 'NONE', #129, #112, #191 ) ;
#92 = DATE_AND_TIME ( #117, #12 ) ;
#93 = DIRECTION ( 'NONE',  ( 0.0000000000000000000, 1.000000000000000000, 0.0000000000000000000 ) ) ;
#94 = EDGE_LOOP ( 'NONE', ( #138 ) ) ;
#95 = AXIS2_PLACEMENT_3D ( 'NONE', #173, #128, #17 ) ;
#96 = DIRECTION ( 'NONE',  ( 3.491481338843133355E-15, -1.224646799147353207E-16, 1.000000000000000000 ) ) ;
#97 = CARTESIAN_POINT ( 'NONE',  ( 7.681258945454893382E-14, 2.624579619658247529E-32, 22.00000000000000000 ) ) ;
#98 = APPROVAL ( #202, 'UNSPECIFIED' ) ;
#99 = FACE_OUTER_BOUND ( 'NONE', #7, .T. ) ;
#100 = ORGANIZATION ( 'UNSPECIFIED', 'UNSPECIFIED', '' ) ;
#101 = CARTESIAN_POINT ( 'NONE',  ( -1.411024377145996218E-30, 4.949207282784130106E-32, -4.041334437186265510E-16 ) ) ;
#102 = APPROVAL ( #221, 'UNSPECIFIED' ) ;
#103 = CC_DESIGN_SECURITY_CLASSIFICATION ( #219, ( #160 ) ) ;
#104 = DIRECTION ( 'NONE',  ( 3.491481338843133355E-15, -1.224646799147353207E-16, 1.000000000000000000 ) ) ;
#105 = ORIENTED_EDGE ( 'NONE', *, *, #109, .T. ) ;
#106 = APPROVAL_DATE_TIME ( #74, #98 ) ;
#107 = DATE_TIME_ROLE ( 'creation_date' ) ;
#108 = AXIS2_PLACEMENT_3D ( 'NONE', #10, #133, #197 ) ;
#109 = EDGE_CURVE ( 'NONE', #120, #120, #48, .T. ) ;
#110 = DIRECTION ( 'NONE',  ( 1.000000000000000000, 0.0000000000000000000, 0.0000000000000000000 ) ) ;
#111 = APPROVAL_ROLE ( '' ) ;
#112 = DIRECTION ( 'NONE',  ( -3.491481338843133355E-15, 1.224646799147353207E-16, -1.000000000000000000 ) ) ;
#113 = PERSON_AND_ORGANIZATION ( #90, #100 ) ;
#114 = CC_DESIGN_PERSON_AND_ORGANIZATION_ASSIGNMENT ( #148, #37, ( #160 ) ) ;
#115 = LOCAL_TIME ( 8, 47, 32.00000000000000000, #56 ) ;
#116 = EDGE_LOOP ( 'NONE', ( #55 ) ) ;
#117 = CALENDAR_DATE ( 2021, 12, 11 ) ;
#118 = ADVANCED_FACE ( 'NONE', ( #33, #159 ), #38, .T. ) ;
#119 = ADVANCED_FACE ( 'NONE', ( #99 ), #212, .T. ) ;
#120 = VERTEX_POINT ( 'NONE', #172 ) ;
#121 = AXIS2_PLACEMENT_3D ( 'NONE', #66, #96, #164 ) ;
#122 = CARTESIAN_POINT ( 'NONE',  ( 2.601153597438134034E-13, 3.499999999999975131, 74.50000000000000000 ) ) ;
#123 = CARTESIAN_POINT ( 'NONE',  ( 7.681258945454893382E-14, 3.499999999999997335, 22.00000000000000000 ) ) ;
#124 = CALENDAR_DATE ( 2021, 12, 11 ) ;
#125 = LOCAL_TIME ( 8, 47, 32.00000000000000000, #196 ) ;
#126 = CARTESIAN_POINT ( 'NONE',  ( 2.618611004132349638E-13, -9.184850993605147156E-15, 74.99999999999998579 ) ) ;
#127 = DATE_AND_TIME ( #5, #125 ) ;
#128 = DIRECTION ( 'NONE',  ( -3.491481338843133355E-15, 1.224646799147353207E-16, -1.000000000000000000 ) ) ;
#129 = CARTESIAN_POINT ( 'NONE',  ( 7.681258945454893382E-14, -2.694222958124176809E-15, 22.00000000000000000 ) ) ;
#130 = APPROVAL_STATUS ( 'not_yet_approved' ) ;
#131 = ORIENTED_EDGE ( 'NONE', *, *, #79, .T. ) ;
#132 = APPROVAL ( #130, 'UNSPECIFIED' ) ;
#133 = DIRECTION ( 'NONE',  ( -3.491481338843133355E-15, 1.224646799147353207E-16, -1.000000000000000000 ) ) ;
#134 = UNCERTAINTY_MEASURE_WITH_UNIT (LENGTH_MEASURE( 1.000000000000000082E-05 ), #30, 'distance_accuracy_value', 'NONE');
#135 = CIRCLE ( 'NONE', #154, 3.500000000000000000 ) ;
#136 = FACE_OUTER_BOUND ( 'NONE', #80, .T. ) ;
#137 = VERTEX_POINT ( 'NONE', #18 ) ;
#138 = ORIENTED_EDGE ( 'NONE', *, *, #153, .F. ) ;
#139 = AXIS2_PLACEMENT_3D ( 'NONE', #58, #16, #67 ) ;
#140 = VERTEX_POINT ( 'NONE', #122 ) ;
#141 = COORDINATED_UNIVERSAL_TIME_OFFSET ( 1, 0, .AHEAD. ) ;
#142 = DIRECTION ( 'NONE',  ( -3.491481338843133355E-15, 1.224646799147353207E-16, -1.000000000000000000 ) ) ;
#143 = EDGE_LOOP ( 'NONE', ( #45 ) ) ;
#144 = VERTEX_POINT ( 'NONE', #123 ) ;
#145 = CARTESIAN_POINT ( 'NONE',  ( 2.601153597438134034E-13, -9.123618653647781159E-15, 74.50000000000000000 ) ) ;
#146 = CARTESIAN_POINT ( 'NONE',  ( 0.0000000000000000000, 0.0000000000000000000, 0.0000000000000000000 ) ) ;
#147 = CIRCLE ( 'NONE', #108, 3.500000000000000000 ) ;
#148 = PERSON_AND_ORGANIZATION ( #90, #100 ) ;
#149 = CARTESIAN_POINT ( 'NONE',  ( -7.055121885729981088E-31, 2.474603641392065053E-32, -2.020667218593132755E-16 ) ) ;
#150 = APPLICATION_PROTOCOL_DEFINITION ( 'international standard', 'config_control_design', 1994, #82 ) ;
#151 = ADVANCED_FACE ( 'NONE', ( #166, #40 ), #1, .T. ) ;
#152 = EDGE_LOOP ( 'NONE', ( #105 ) ) ;
#153 = EDGE_CURVE ( 'NONE', #144, #144, #135, .T. ) ;
#154 = AXIS2_PLACEMENT_3D ( 'NONE', #181, #209, #208 ) ;
#155 = DIRECTION ( 'NONE',  ( -3.491481338843133355E-15, 1.224646799147353207E-16, -1.000000000000000000 ) ) ;
#156 = PERSON_AND_ORGANIZATION_ROLE ( 'design_owner' ) ;
#157 = DIRECTION ( 'NONE',  ( 4.275831445896958607E-31, 1.000000000000000000, 1.224646799147353207E-16 ) ) ;
#158 = EDGE_LOOP ( 'NONE', ( #183 ) ) ;
#159 = FACE_OUTER_BOUND ( 'NONE', #116, .T. ) ;
#160 = PRODUCT_DEFINITION_FORMATION_WITH_SPECIFIED_SOURCE ( 'ANY', '', #165, .NOT_KNOWN. ) ;
#161 = DIRECTION ( 'NONE',  ( -3.491481338843133355E-15, 1.224646799147353207E-16, -1.000000000000000000 ) ) ;
#162 = ORIENTED_EDGE ( 'NONE', *, *, #79, .F. ) ;
#163 = PLANE ( 'NONE',  #20 ) ;
#164 = DIRECTION ( 'NONE',  ( -4.275831445896958607E-31, -1.000000000000000000, -1.224646799147353207E-16 ) ) ;
#165 = PRODUCT ( '32488', '32488', '', ( #73 ) ) ;
#166 = FACE_BOUND ( 'NONE', #86, .T. ) ;
#167 = VERTEX_POINT ( 'NONE', #88 ) ;
#168 = PERSON_AND_ORGANIZATION ( #90, #100 ) ;
#169 = ORIENTED_EDGE ( 'NONE', *, *, #153, .T. ) ;
#170 = PERSON_AND_ORGANIZATION ( #90, #100 ) ;
#171 = CARTESIAN_POINT ( 'NONE',  ( 2.618611004132349638E-13, 1.722035238548541445E-30, 74.99999999999998579 ) ) ;
#172 = CARTESIAN_POINT ( 'NONE',  ( 7.681258945454893382E-14, 3.499999999999997335, 22.00000000000000000 ) ) ;
#173 = CARTESIAN_POINT ( 'NONE',  ( -1.411024377145996218E-30, 4.949207282784130106E-32, -4.041334437186265510E-16 ) ) ;
#174 = PERSON_AND_ORGANIZATION_ROLE ( 'classification_officer' ) ;
#175 = PRODUCT_RELATED_PRODUCT_CATEGORY ( 'detail', '', ( #165 ) ) ;
#176 = CIRCLE ( 'NONE', #95, 3.299999999999999822 ) ;
#177 = COORDINATED_UNIVERSAL_TIME_OFFSET ( 1, 0, .AHEAD. ) ;
#178 = CARTESIAN_POINT ( 'NONE',  ( 2.601153597438134034E-13, -9.123618653647781159E-15, 74.50000000000000000 ) ) ;
#179 = COORDINATED_UNIVERSAL_TIME_OFFSET ( 1, 0, .AHEAD. ) ;
#180 = FACE_OUTER_BOUND ( 'NONE', #94, .T. ) ;
#181 = CARTESIAN_POINT ( 'NONE',  ( 7.681258945454893382E-14, -2.694222958124176809E-15, 22.00000000000000000 ) ) ;
#182 = CLOSED_SHELL ( 'NONE', ( #119, #210, #9, #189 ) ) ;
#183 = ORIENTED_EDGE ( 'NONE', *, *, #194, .T. ) ;
#184 = CALENDAR_DATE ( 2021, 12, 11 ) ;
#185 = ADVANCED_BREP_SHAPE_REPRESENTATION ( '32488', ( #77, #217, #211 ), #65 ) ;
#186 = DATE_AND_TIME ( #124, #199 ) ;
#187 = LOCAL_TIME ( 8, 47, 32.00000000000000000, #177 ) ;
#188 = APPROVAL_ROLE ( '' ) ;
#189 = ADVANCED_FACE ( 'NONE', ( #180 ), #24, .T. ) ;
#190 = APPROVAL_DATE_TIME ( #92, #132 ) ;
#191 = DIRECTION ( 'NONE',  ( 0.0000000000000000000, 1.000000000000000000, 0.0000000000000000000 ) ) ;
#192 = AXIS2_PLACEMENT_3D ( 'NONE', #145, #142, #223 ) ;
#193 = PERSON_AND_ORGANIZATION_ROLE ( 'creator' ) ;
#194 = EDGE_CURVE ( 'NONE', #57, #57, #147, .T. ) ;
#195 = EDGE_LOOP ( 'NONE', ( #13 ) ) ;
#196 = COORDINATED_UNIVERSAL_TIME_OFFSET ( 1, 0, .AHEAD. ) ;
#197 = DIRECTION ( 'NONE',  ( 4.402125587170824932E-31, 1.000000000000000000, 1.239088197126290817E-16 ) ) ;
#198 = CC_DESIGN_DATE_AND_TIME_ASSIGNMENT ( #186, #107, ( #64 ) ) ;
#199 = LOCAL_TIME ( 8, 47, 32.00000000000000000, #141 ) ;
#200 = PERSON_AND_ORGANIZATION ( #90, #100 ) ;
#201 = CYLINDRICAL_SURFACE ( 'NONE', #139, 3.500000000000000000 ) ;
#202 = APPROVAL_STATUS ( 'not_yet_approved' ) ;
#203 = DATE_AND_TIME ( #39, #187 ) ;
#204 = CC_DESIGN_PERSON_AND_ORGANIZATION_ASSIGNMENT ( #78, #193, ( #160 ) ) ;
#205 = CIRCLE ( 'NONE', #54, 3.000000000000004885 ) ;
#206 = DATE_TIME_ROLE ( 'classification_date' ) ;
#207 = DIRECTION ( 'NONE',  ( -3.491481338843133355E-15, 1.224646799147353207E-16, -1.000000000000000000 ) ) ;
#208 = DIRECTION ( 'NONE',  ( 0.0000000000000000000, 1.000000000000000000, 0.0000000000000000000 ) ) ;
#209 = DIRECTION ( 'NONE',  ( -3.491481338843133355E-15, 1.224646799147353207E-16, -1.000000000000000000 ) ) ;
#210 = ADVANCED_FACE ( 'NONE', ( #44, #25 ), #32, .T. ) ;
#211 = AXIS2_PLACEMENT_3D ( 'NONE', #59, #69, #110 ) ;
#212 = PLANE ( 'NONE',  #76 ) ;
#213 = AXIS2_PLACEMENT_3D ( 'NONE', #101, #104, #87 ) ;
#214 = ORIENTED_EDGE ( 'NONE', *, *, #75, .F. ) ;
#215 = EDGE_LOOP ( 'NONE', ( #214 ) ) ;
#216 = PLANE ( 'NONE',  #84 ) ;
#217 = MANIFOLD_SOLID_BREP ( 'Corps-Déplacer/Copier1[2]', #182 ) ;
#218 = APPLICATION_PROTOCOL_DEFINITION ( 'international standard', 'config_control_design', 1994, #47 ) ;
#219 = SECURITY_CLASSIFICATION ( '', '', #43 ) ;
#220 = PERSON_AND_ORGANIZATION_ROLE ( 'creator' ) ;
#221 = APPROVAL_STATUS ( 'not_yet_approved' ) ;
#222 = ADVANCED_FACE ( 'NONE', ( #72 ), #216, .F. ) ;
#223 = DIRECTION ( 'NONE',  ( 0.0000000000000000000, 1.000000000000000000, 0.0000000000000000000 ) ) ;
ENDSEC;
END-ISO-10303-21;
