ISO-10303-21;
HEADER;
FILE_DESCRIPTION (( 'STEP AP203' ),
    '1' );
FILE_NAME ('32487.step',
    '2021-11-12T07:47:31',
    ( '' ),
    ( '' ),
    'SwSTEP 2.0',
    'SolidWorks 2019',
    '' );
FILE_SCHEMA (( 'CONFIG_CONTROL_DESIGN' ));
ENDSEC;

DATA;
#1 = APPLICATION_CONTEXT ( 'configuration controlled 3d designs of mechanical parts and assemblies' ) ;
#2 = LOCAL_TIME ( 8, 47, 31.00000000000000000, #100 ) ;
#3 = DIRECTION ( 'NONE',  ( 0.0000000000000000000, 1.000000000000000000, 0.0000000000000000000 ) ) ;
#4 = APPROVAL_DATE_TIME ( #82, #58 ) ;
#5 = CALENDAR_DATE ( 2021, 12, 11 ) ;
#6 = CC_DESIGN_DATE_AND_TIME_ASSIGNMENT ( #151, #38, ( #92 ) ) ;
#7 = DIRECTION ( 'NONE',  ( -4.275831445896958607E-31, -1.000000000000000000, -1.224646799147353207E-16 ) ) ;
#8 = AXIS2_PLACEMENT_3D ( 'NONE', #63, #90, #123 ) ;
#9 = PRODUCT_RELATED_PRODUCT_CATEGORY ( 'detail', '', ( #24 ) ) ;
#10 = ORIENTED_EDGE ( 'NONE', *, *, #66, .F. ) ;
#11 = CARTESIAN_POINT ( 'NONE',  ( 6.982962677686267697E-16, 3.000000000000000000, 0.2000000000000000389 ) ) ;
#12 = DIRECTION ( 'NONE',  ( -3.491481338843133355E-15, 1.224646799147353207E-16, -1.000000000000000000 ) ) ;
#13 = PERSON_AND_ORGANIZATION ( #168, #182 ) ;
#14 = ADVANCED_FACE ( 'NONE', ( #94, #223 ), #78, .T. ) ;
#15 = ORIENTED_EDGE ( 'NONE', *, *, #66, .T. ) ;
#16 = FACE_BOUND ( 'NONE', #95, .T. ) ;
#17 = DIRECTION ( 'NONE',  ( 3.491481338843133355E-15, -1.224646799147353207E-16, 1.000000000000000000 ) ) ;
#18 = CC_DESIGN_APPROVAL ( #58, ( #22 ) ) ;
#19 = PERSON_AND_ORGANIZATION_ROLE ( 'design_supplier' ) ;
#20 = AXIS2_PLACEMENT_3D ( 'NONE', #97, #80, #148 ) ;
#21 = PERSON_AND_ORGANIZATION ( #168, #182 ) ;
#22 = SECURITY_CLASSIFICATION ( '', '', #139 ) ;
#23 = ADVANCED_FACE ( 'NONE', ( #16, #167 ), #99, .T. ) ;
#24 = PRODUCT ( '32487', '32487', '', ( #166 ) ) ;
#25 = CARTESIAN_POINT ( 'NONE',  ( 2.601153597438134034E-13, 2.999999999999988898, 74.49999999999998579 ) ) ;
#26 = CARTESIAN_POINT ( 'NONE',  ( 6.982962677686266711E-14, 2.999999999999997780, 20.00000000000000000 ) ) ;
#27 = EDGE_CURVE ( 'NONE', #41, #41, #126, .T. ) ;
#28 = LOCAL_TIME ( 8, 47, 31.00000000000000000, #107 ) ;
#29 = DIRECTION ( 'NONE',  ( 3.491481338843133355E-15, -1.224646799147353207E-16, 1.000000000000000000 ) ) ;
#30 = AXIS2_PLACEMENT_3D ( 'NONE', #192, #17, #154 ) ;
#31 = CARTESIAN_POINT ( 'NONE',  ( -1.197232804851148375E-30, 4.199327391453201302E-32, -3.429011037612588783E-16 ) ) ;
#32 = ORIENTED_EDGE ( 'NONE', *, *, #40, .T. ) ;
#33 = DIRECTION ( 'NONE',  ( 4.275831445896958607E-31, 1.000000000000000000, 1.224646799147353207E-16 ) ) ;
#34 = PERSON_AND_ORGANIZATION_ROLE ( 'creator' ) ;
#35 = EDGE_LOOP ( 'NONE', ( #169 ) ) ;
#36 = ADVANCED_BREP_SHAPE_REPRESENTATION ( '32487', ( #217, #138, #111 ), #194 ) ;
#37 = AXIS2_PLACEMENT_3D ( 'NONE', #206, #12, #115 ) ;
#38 = DATE_TIME_ROLE ( 'creation_date' ) ;
#39 = FACE_OUTER_BOUND ( 'NONE', #61, .T. ) ;
#40 = EDGE_CURVE ( 'NONE', #77, #77, #43, .T. ) ;
#41 = VERTEX_POINT ( 'NONE', #11 ) ;
#42 = CC_DESIGN_SECURITY_CLASSIFICATION ( #22, ( #85 ) ) ;
#43 = CIRCLE ( 'NONE', #205, 2.999999999999997780 ) ;
#44 = ADVANCED_FACE ( 'NONE', ( #69, #119 ), #204, .T. ) ;
#45 = EDGE_LOOP ( 'NONE', ( #114 ) ) ;
#46 = DIRECTION ( 'NONE',  ( 0.0000000000000000000, 0.0000000000000000000, 1.000000000000000000 ) ) ;
#47 = ORIENTED_EDGE ( 'NONE', *, *, #191, .F. ) ;
#48 = ADVANCED_FACE ( 'NONE', ( #208, #51 ), #64, .T. ) ;
#49 = EDGE_LOOP ( 'NONE', ( #32 ) ) ;
#50 = COORDINATED_UNIVERSAL_TIME_OFFSET ( 1, 0, .AHEAD. ) ;
#51 = FACE_BOUND ( 'NONE', #67, .T. ) ;
#52 = APPLICATION_CONTEXT ( 'configuration controlled 3d designs of mechanical parts and assemblies' ) ;
#53 = EDGE_LOOP ( 'NONE', ( #201 ) ) ;
#54 = COORDINATED_UNIVERSAL_TIME_OFFSET ( 1, 0, .AHEAD. ) ;
#55 = DIRECTION ( 'NONE',  ( -3.491481338843133355E-15, 1.224646799147353207E-16, -1.000000000000000000 ) ) ;
#56 = CALENDAR_DATE ( 2021, 12, 11 ) ;
#57 = DIRECTION ( 'NONE',  ( -3.491481338843133355E-15, 1.224646799147353207E-16, -1.000000000000000000 ) ) ;
#58 = APPROVAL ( #108, 'UNSPECIFIED' ) ;
#59 = PLANE ( 'NONE',  #8 ) ;
#60 = CIRCLE ( 'NONE', #183, 3.000000000000000444 ) ;
#61 = EDGE_LOOP ( 'NONE', ( #15 ) ) ;
#62 = CARTESIAN_POINT ( 'NONE',  ( 6.982962677686266711E-14, 2.999999999999997780, 20.00000000000000000 ) ) ;
#63 = CARTESIAN_POINT ( 'NONE',  ( -5.986164024255741874E-31, 2.099663695726600651E-32, -1.714505518806294391E-16 ) ) ;
#64 = CONICAL_SURFACE ( 'NONE', #189, 2.799999999999999822, 0.7853981633974485010 ) ;
#65 = DIRECTION ( 'NONE',  ( -3.491481338843133355E-15, 1.224646799147353207E-16, -1.000000000000000000 ) ) ;
#66 = EDGE_CURVE ( 'NONE', #179, #179, #195, .T. ) ;
#67 = EDGE_LOOP ( 'NONE', ( #10 ) ) ;
#68 = EDGE_LOOP ( 'NONE', ( #164 ) ) ;
#69 = FACE_OUTER_BOUND ( 'NONE', #49, .T. ) ;
#70 = CARTESIAN_POINT ( 'NONE',  ( 2.618611004132350143E-13, 1.874699728327311610E-32, 75.00000000000000000 ) ) ;
#71 = CARTESIAN_POINT ( 'NONE',  ( 6.982962677686266711E-14, -2.449293598294706513E-15, 20.00000000000000000 ) ) ;
#72 = AXIS2_PLACEMENT_3D ( 'NONE', #219, #65, #33 ) ;
#73 = APPROVAL_ROLE ( '' ) ;
#74 =( NAMED_UNIT ( * ) SI_UNIT ( $, .STERADIAN. ) SOLID_ANGLE_UNIT ( ) );
#75 = DESIGN_CONTEXT ( 'detailed design', #52, 'design' ) ;
#76 = CARTESIAN_POINT ( 'NONE',  ( 6.982962677686266711E-14, 2.249639673992782854E-32, 20.00000000000000000 ) ) ;
#77 = VERTEX_POINT ( 'NONE', #25 ) ;
#78 = CYLINDRICAL_SURFACE ( 'NONE', #37, 3.000000000000000000 ) ;
#79 = DIRECTION ( 'NONE',  ( 4.275831445896958607E-31, 1.000000000000000000, 1.224646799147353207E-16 ) ) ;
#80 = DIRECTION ( 'NONE',  ( -3.491481338843133355E-15, 1.224646799147353207E-16, -1.000000000000000000 ) ) ;
#81 = CC_DESIGN_APPROVAL ( #180, ( #85 ) ) ;
#82 = DATE_AND_TIME ( #56, #98 ) ;
#83 = DIRECTION ( 'NONE',  ( 3.491481338843133355E-15, -1.224646799147353207E-16, 1.000000000000000000 ) ) ;
#84 = DIRECTION ( 'NONE',  ( -3.491481338843133355E-15, 1.224646799147353207E-16, -1.000000000000000000 ) ) ;
#85 = PRODUCT_DEFINITION_FORMATION_WITH_SPECIFIED_SOURCE ( 'ANY', '', #24, .NOT_KNOWN. ) ;
#86 = CIRCLE ( 'NONE', #91, 2.500000000000004441 ) ;
#87 = CC_DESIGN_PERSON_AND_ORGANIZATION_ASSIGNMENT ( #177, #88, ( #22 ) ) ;
#88 = PERSON_AND_ORGANIZATION_ROLE ( 'classification_officer' ) ;
#89 = CC_DESIGN_PERSON_AND_ORGANIZATION_ASSIGNMENT ( #212, #136, ( #85 ) ) ;
#90 = DIRECTION ( 'NONE',  ( -3.491481338843133355E-15, 1.224646799147353207E-16, -1.000000000000000000 ) ) ;
#91 = AXIS2_PLACEMENT_3D ( 'NONE', #120, #57, #171 ) ;
#92 = PRODUCT_DEFINITION ( 'UNKNOWN', '', #85, #75 ) ;
#93 = APPLICATION_PROTOCOL_DEFINITION ( 'international standard', 'config_control_design', 1994, #1 ) ;
#94 = FACE_OUTER_BOUND ( 'NONE', #203, .T. ) ;
#95 = EDGE_LOOP ( 'NONE', ( #222 ) ) ;
#96 = APPROVAL_STATUS ( 'not_yet_approved' ) ;
#97 = CARTESIAN_POINT ( 'NONE',  ( 2.601153597438134034E-13, -9.123618653647779582E-15, 74.49999999999998579 ) ) ;
#98 = LOCAL_TIME ( 8, 47, 31.00000000000000000, #54 ) ;
#99 = CONICAL_SURFACE ( 'NONE', #20, 2.999999999999997780, 0.7853981633974275178 ) ;
#100 = COORDINATED_UNIVERSAL_TIME_OFFSET ( 1, 0, .AHEAD. ) ;
#101 = DIRECTION ( 'NONE',  ( -3.491481338843133355E-15, 1.224646799147353207E-16, -1.000000000000000000 ) ) ;
#102 = ORIENTED_EDGE ( 'NONE', *, *, #27, .F. ) ;
#103 = PERSON_AND_ORGANIZATION ( #168, #182 ) ;
#104 = CC_DESIGN_PERSON_AND_ORGANIZATION_ASSIGNMENT ( #187, #34, ( #92 ) ) ;
#105 = APPROVAL_STATUS ( 'not_yet_approved' ) ;
#106 = AXIS2_PLACEMENT_3D ( 'NONE', #76, #29, #7 ) ;
#107 = COORDINATED_UNIVERSAL_TIME_OFFSET ( 1, 0, .AHEAD. ) ;
#108 = APPROVAL_STATUS ( 'not_yet_approved' ) ;
#109 = VERTEX_POINT ( 'NONE', #62 ) ;
#110 = VERTEX_POINT ( 'NONE', #181 ) ;
#111 = AXIS2_PLACEMENT_3D ( 'NONE', #149, #46, #113 ) ;
#112 = CARTESIAN_POINT ( 'NONE',  ( 2.601153597438134034E-13, -9.123618653647779582E-15, 74.49999999999998579 ) ) ;
#113 = DIRECTION ( 'NONE',  ( 1.000000000000000000, 0.0000000000000000000, 0.0000000000000000000 ) ) ;
#114 = ORIENTED_EDGE ( 'NONE', *, *, #174, .T. ) ;
#115 = DIRECTION ( 'NONE',  ( 4.275831445896959482E-31, 1.000000000000000000, 1.224646799147353207E-16 ) ) ;
#116 = APPROVAL_DATE_TIME ( #202, #122 ) ;
#117 = CARTESIAN_POINT ( 'NONE',  ( -1.197232804851148375E-30, 4.199327391453201302E-32, -3.429011037612588783E-16 ) ) ;
#118 = AXIS2_PLACEMENT_3D ( 'NONE', #137, #84, #3 ) ;
#119 = FACE_OUTER_BOUND ( 'NONE', #173, .T. ) ;
#120 = CARTESIAN_POINT ( 'NONE',  ( 2.618611004132350143E-13, -9.184850993605148733E-15, 75.00000000000000000 ) ) ;
#121 = SHAPE_DEFINITION_REPRESENTATION ( #196, #36 ) ;
#122 = APPROVAL ( #96, 'UNSPECIFIED' ) ;
#123 = DIRECTION ( 'NONE',  ( 4.275831445896958607E-31, 1.000000000000000000, 1.224646799147353207E-16 ) ) ;
#124 = AXIS2_PLACEMENT_3D ( 'NONE', #70, #135, #131 ) ;
#125 =( LENGTH_UNIT ( ) NAMED_UNIT ( * ) SI_UNIT ( .MILLI., .METRE. ) );
#126 = CIRCLE ( 'NONE', #142, 3.000000000000000000 ) ;
#127 = CLOSED_SHELL ( 'NONE', ( #199, #44, #23, #128 ) ) ;
#128 = ADVANCED_FACE ( 'NONE', ( #147 ), #172, .F. ) ;
#129 = DIRECTION ( 'NONE',  ( 4.172848212839010723E-31, 1.000000000000000000, 1.264902534566421922E-16 ) ) ;
#130 = APPROVAL_PERSON_ORGANIZATION ( #13, #122, #145 ) ;
#131 = DIRECTION ( 'NONE',  ( 4.275831445896958607E-31, 1.000000000000000000, 1.224646799147353207E-16 ) ) ;
#132 = CLOSED_SHELL ( 'NONE', ( #209, #48, #14, #159 ) ) ;
#133 = EDGE_LOOP ( 'NONE', ( #102 ) ) ;
#134 = COORDINATED_UNIVERSAL_TIME_OFFSET ( 1, 0, .AHEAD. ) ;
#135 = DIRECTION ( 'NONE',  ( -3.491481338843133355E-15, 1.224646799147353207E-16, -1.000000000000000000 ) ) ;
#136 = PERSON_AND_ORGANIZATION_ROLE ( 'creator' ) ;
#137 = CARTESIAN_POINT ( 'NONE',  ( 6.982962677686266711E-14, -2.449293598294706513E-15, 20.00000000000000000 ) ) ;
#138 = MANIFOLD_SOLID_BREP ( 'Corps-Déplacer/Copier1[2]', #132 ) ;
#139 = SECURITY_CLASSIFICATION_LEVEL ( 'unclassified' ) ;
#140 = APPROVAL_PERSON_ORGANIZATION ( #21, #180, #73 ) ;
#141 = CC_DESIGN_PERSON_AND_ORGANIZATION_ASSIGNMENT ( #185, #207, ( #24 ) ) ;
#142 = AXIS2_PLACEMENT_3D ( 'NONE', #221, #186, #129 ) ;
#143 = CARTESIAN_POINT ( 'NONE',  ( 0.0000000000000000000, 2.799999999999999822, 0.0000000000000000000 ) ) ;
#144 = CC_DESIGN_DATE_AND_TIME_ASSIGNMENT ( #157, #153, ( #22 ) ) ;
#145 = APPROVAL_ROLE ( '' ) ;
#146 = DIRECTION ( 'NONE',  ( 0.0000000000000000000, 1.000000000000000000, 0.0000000000000000000 ) ) ;
#147 = FACE_OUTER_BOUND ( 'NONE', #150, .T. ) ;
#148 = DIRECTION ( 'NONE',  ( 0.0000000000000000000, 1.000000000000000000, 0.0000000000000000000 ) ) ;
#149 = CARTESIAN_POINT ( 'NONE',  ( 0.0000000000000000000, 0.0000000000000000000, 0.0000000000000000000 ) ) ;
#150 = EDGE_LOOP ( 'NONE', ( #47 ) ) ;
#151 = DATE_AND_TIME ( #213, #2 ) ;
#152 = DIRECTION ( 'NONE',  ( -3.491481338843133355E-15, 1.224646799147353207E-16, -1.000000000000000000 ) ) ;
#153 = DATE_TIME_ROLE ( 'classification_date' ) ;
#154 = DIRECTION ( 'NONE',  ( -4.275831445896958607E-31, -1.000000000000000000, -1.224646799147353207E-16 ) ) ;
#155 = CC_DESIGN_APPROVAL ( #122, ( #92 ) ) ;
#156 = APPROVAL_ROLE ( '' ) ;
#157 = DATE_AND_TIME ( #5, #28 ) ;
#158 = DATE_AND_TIME ( #190, #193 ) ;
#159 = ADVANCED_FACE ( 'NONE', ( #220 ), #211, .T. ) ;
#160 = AXIS2_PLACEMENT_3D ( 'NONE', #31, #101, #79 ) ;
#161 = FACE_OUTER_BOUND ( 'NONE', #45, .T. ) ;
#162 = UNCERTAINTY_MEASURE_WITH_UNIT (LENGTH_MEASURE( 1.000000000000000082E-05 ), #125, 'distance_accuracy_value', 'NONE');
#163 = ORIENTED_EDGE ( 'NONE', *, *, #174, .F. ) ;
#164 = ORIENTED_EDGE ( 'NONE', *, *, #165, .F. ) ;
#165 = EDGE_CURVE ( 'NONE', #109, #109, #216, .T. ) ;
#166 = MECHANICAL_CONTEXT ( 'NONE', #1, 'mechanical' ) ;
#167 = FACE_OUTER_BOUND ( 'NONE', #53, .T. ) ;
#168 = PERSON ( 'UNSPECIFIED', 'UNSPECIFIED', 'UNSPECIFIED', ('UNSPECIFIED'), ('UNSPECIFIED'), ('UNSPECIFIED') ) ;
#169 = ORIENTED_EDGE ( 'NONE', *, *, #27, .T. ) ;
#170 = ORIENTED_EDGE ( 'NONE', *, *, #165, .T. ) ;
#171 = DIRECTION ( 'NONE',  ( 0.0000000000000000000, 1.000000000000000000, 0.0000000000000000000 ) ) ;
#172 = PLANE ( 'NONE',  #124 ) ;
#173 = EDGE_LOOP ( 'NONE', ( #163 ) ) ;
#174 = EDGE_CURVE ( 'NONE', #178, #178, #60, .T. ) ;
#175 = APPROVAL_PERSON_ORGANIZATION ( #103, #58, #156 ) ;
#176 = APPROVAL_DATE_TIME ( #158, #180 ) ;
#177 = PERSON_AND_ORGANIZATION ( #168, #182 ) ;
#178 = VERTEX_POINT ( 'NONE', #26 ) ;
#179 = VERTEX_POINT ( 'NONE', #143 ) ;
#180 = APPROVAL ( #105, 'UNSPECIFIED' ) ;
#181 = CARTESIAN_POINT ( 'NONE',  ( 2.618611004132350143E-13, 2.499999999999995115, 75.00000000000000000 ) ) ;
#182 = ORGANIZATION ( 'UNSPECIFIED', 'UNSPECIFIED', '' ) ;
#183 = AXIS2_PLACEMENT_3D ( 'NONE', #71, #55, #200 ) ;
#184 = APPLICATION_PROTOCOL_DEFINITION ( 'international standard', 'config_control_design', 1994, #52 ) ;
#185 = PERSON_AND_ORGANIZATION ( #168, #182 ) ;
#186 = DIRECTION ( 'NONE',  ( -3.491481338843133355E-15, 1.224646799147353207E-16, -1.000000000000000000 ) ) ;
#187 = PERSON_AND_ORGANIZATION ( #168, #182 ) ;
#188 = DIRECTION ( 'NONE',  ( -4.275831445896958607E-31, -1.000000000000000000, -1.224646799147353207E-16 ) ) ;
#189 = AXIS2_PLACEMENT_3D ( 'NONE', #117, #83, #188 ) ;
#190 = CALENDAR_DATE ( 2021, 12, 11 ) ;
#191 = EDGE_CURVE ( 'NONE', #110, #110, #86, .T. ) ;
#192 = CARTESIAN_POINT ( 'NONE',  ( 6.982962677686266711E-14, 2.249639673992782854E-32, 20.00000000000000000 ) ) ;
#193 = LOCAL_TIME ( 8, 47, 31.00000000000000000, #134 ) ;
#194 =( GEOMETRIC_REPRESENTATION_CONTEXT ( 3 ) GLOBAL_UNCERTAINTY_ASSIGNED_CONTEXT ( ( #162 ) ) GLOBAL_UNIT_ASSIGNED_CONTEXT ( ( #125, #198, #74 ) ) REPRESENTATION_CONTEXT ( 'NONE', 'WORKASPACE' ) );
#195 = CIRCLE ( 'NONE', #160, 2.799999999999999822 ) ;
#196 = PRODUCT_DEFINITION_SHAPE ( 'NONE', 'NONE',  #92 ) ;
#197 = PLANE ( 'NONE',  #106 ) ;
#198 =( NAMED_UNIT ( * ) PLANE_ANGLE_UNIT ( ) SI_UNIT ( $, .RADIAN. ) );
#199 = ADVANCED_FACE ( 'NONE', ( #161 ), #197, .F. ) ;
#200 = DIRECTION ( 'NONE',  ( 0.0000000000000000000, 1.000000000000000000, 0.0000000000000000000 ) ) ;
#201 = ORIENTED_EDGE ( 'NONE', *, *, #40, .F. ) ;
#202 = DATE_AND_TIME ( #218, #210 ) ;
#203 = EDGE_LOOP ( 'NONE', ( #170 ) ) ;
#204 = CYLINDRICAL_SURFACE ( 'NONE', #72, 2.999999999999999112 ) ;
#205 = AXIS2_PLACEMENT_3D ( 'NONE', #112, #152, #146 ) ;
#206 = CARTESIAN_POINT ( 'NONE',  ( 0.0000000000000000000, 0.0000000000000000000, 0.0000000000000000000 ) ) ;
#207 = PERSON_AND_ORGANIZATION_ROLE ( 'design_owner' ) ;
#208 = FACE_OUTER_BOUND ( 'NONE', #35, .T. ) ;
#209 = ADVANCED_FACE ( 'NONE', ( #39 ), #59, .T. ) ;
#210 = LOCAL_TIME ( 8, 47, 31.00000000000000000, #50 ) ;
#211 = PLANE ( 'NONE',  #30 ) ;
#212 = PERSON_AND_ORGANIZATION ( #168, #182 ) ;
#213 = CALENDAR_DATE ( 2021, 12, 11 ) ;
#214 = CC_DESIGN_PERSON_AND_ORGANIZATION_ASSIGNMENT ( #215, #19, ( #85 ) ) ;
#215 = PERSON_AND_ORGANIZATION ( #168, #182 ) ;
#216 = CIRCLE ( 'NONE', #118, 3.000000000000000444 ) ;
#217 = MANIFOLD_SOLID_BREP ( 'Corps-Déplacer/Copier1[1]', #127 ) ;
#218 = CALENDAR_DATE ( 2021, 12, 11 ) ;
#219 = CARTESIAN_POINT ( 'NONE',  ( 0.0000000000000000000, 0.0000000000000000000, 0.0000000000000000000 ) ) ;
#220 = FACE_OUTER_BOUND ( 'NONE', #68, .T. ) ;
#221 = CARTESIAN_POINT ( 'NONE',  ( 6.982962677686254878E-16, -2.449293598294702224E-17, 0.1999999999999996503 ) ) ;
#222 = ORIENTED_EDGE ( 'NONE', *, *, #191, .T. ) ;
#223 = FACE_OUTER_BOUND ( 'NONE', #133, .T. ) ;
ENDSEC;
END-ISO-10303-21;
