ISO-10303-21;
HEADER;
FILE_DESCRIPTION (( 'STEP AP203' ),
    '1' );
FILE_NAME ('32486.step',
    '2021-11-12T07:47:31',
    ( '' ),
    ( '' ),
    'SwSTEP 2.0',
    'SolidWorks 2019',
    '' );
FILE_SCHEMA (( 'CONFIG_CONTROL_DESIGN' ));
ENDSEC;

DATA;
#1 = LOCAL_TIME ( 8, 47, 31.00000000000000000, #84 ) ;
#2 = EDGE_LOOP ( 'NONE', ( #20 ) ) ;
#3 = FACE_OUTER_BOUND ( 'NONE', #109, .T. ) ;
#4 = ORIENTED_EDGE ( 'NONE', *, *, #31, .F. ) ;
#5 = PLANE ( 'NONE',  #58 ) ;
#6 = ADVANCED_FACE ( 'NONE', ( #41 ), #5, .F. ) ;
#7 = CARTESIAN_POINT ( 'NONE',  ( 2.094888803305880013E-13, 1.499759782661845565E-32, 60.00000000000000000 ) ) ;
#8 =( GEOMETRIC_REPRESENTATION_CONTEXT ( 3 ) GLOBAL_UNCERTAINTY_ASSIGNED_CONTEXT ( ( #23 ) ) GLOBAL_UNIT_ASSIGNED_CONTEXT ( ( #167, #215, #200 ) ) REPRESENTATION_CONTEXT ( 'NONE', 'WORKASPACE' ) );
#9 = APPLICATION_PROTOCOL_DEFINITION ( 'international standard', 'config_control_design', 1994, #74 ) ;
#10 = VERTEX_POINT ( 'NONE', #133 ) ;
#11 = CARTESIAN_POINT ( 'NONE',  ( 0.0000000000000000000, 2.350000000000000089, 0.0000000000000000000 ) ) ;
#12 = PERSON_AND_ORGANIZATION_ROLE ( 'design_owner' ) ;
#13 = ADVANCED_FACE ( 'NONE', ( #3, #21 ), #37, .T. ) ;
#14 = CIRCLE ( 'NONE', #144, 2.499999999999999556 ) ;
#15 = APPROVAL_STATUS ( 'not_yet_approved' ) ;
#16 = LOCAL_TIME ( 8, 47, 31.00000000000000000, #102 ) ;
#17 = ORIENTED_EDGE ( 'NONE', *, *, #168, .T. ) ;
#18 = ORIENTED_EDGE ( 'NONE', *, *, #31, .T. ) ;
#19 = CC_DESIGN_PERSON_AND_ORGANIZATION_ASSIGNMENT ( #223, #12, ( #140 ) ) ;
#20 = ORIENTED_EDGE ( 'NONE', *, *, #130, .F. ) ;
#21 = FACE_BOUND ( 'NONE', #54, .T. ) ;
#22 = DIRECTION ( 'NONE',  ( -4.275831445896958607E-31, -1.000000000000000000, -1.224646799147353207E-16 ) ) ;
#23 = UNCERTAINTY_MEASURE_WITH_UNIT (LENGTH_MEASURE( 1.000000000000000082E-05 ), #167, 'distance_accuracy_value', 'NONE');
#24 = DIRECTION ( 'NONE',  ( 0.0000000000000000000, 1.000000000000000000, 0.0000000000000000000 ) ) ;
#25 = SECURITY_CLASSIFICATION ( '', '', #35 ) ;
#26 = AXIS2_PLACEMENT_3D ( 'NONE', #219, #45, #117 ) ;
#27 = DIRECTION ( 'NONE',  ( -3.491481338843133355E-15, 1.224646799147353207E-16, -1.000000000000000000 ) ) ;
#28 = DIRECTION ( 'NONE',  ( -3.491481338843133355E-15, 1.224646799147353207E-16, -1.000000000000000000 ) ) ;
#29 = ADVANCED_BREP_SHAPE_REPRESENTATION ( '32486', ( #86, #97, #100 ), #8 ) ;
#30 = FACE_OUTER_BOUND ( 'NONE', #178, .T. ) ;
#31 = EDGE_CURVE ( 'NONE', #10, #10, #92, .T. ) ;
#32 = APPROVAL_PERSON_ORGANIZATION ( #202, #57, #173 ) ;
#33 = MECHANICAL_CONTEXT ( 'NONE', #74, 'mechanical' ) ;
#34 = APPROVAL_DATE_TIME ( #122, #88 ) ;
#35 = SECURITY_CLASSIFICATION_LEVEL ( 'unclassified' ) ;
#36 = APPROVAL_PERSON_ORGANIZATION ( #155, #88, #134 ) ;
#37 = CONICAL_SURFACE ( 'NONE', #162, 2.350000000000000089, 0.7853981633974481680 ) ;
#38 = ORIENTED_EDGE ( 'NONE', *, *, #130, .T. ) ;
#39 = ORIENTED_EDGE ( 'NONE', *, *, #152, .T. ) ;
#40 = FACE_BOUND ( 'NONE', #195, .T. ) ;
#41 = FACE_OUTER_BOUND ( 'NONE', #213, .T. ) ;
#42 = DIRECTION ( 'NONE',  ( 4.237045877651918877E-31, 1.000000000000000000, 1.192622389734054877E-16 ) ) ;
#43 = CARTESIAN_POINT ( 'NONE',  ( 6.284666409917640040E-14, 1.874699728327318726E-32, 18.00000000000000000 ) ) ;
#44 = CC_DESIGN_APPROVAL ( #88, ( #135 ) ) ;
#45 = DIRECTION ( 'NONE',  ( -3.491481338843133355E-15, 1.224646799147353207E-16, -1.000000000000000000 ) ) ;
#46 = ADVANCED_FACE ( 'NONE', ( #214 ), #141, .F. ) ;
#47 = APPLICATION_PROTOCOL_DEFINITION ( 'international standard', 'config_control_design', 1994, #188 ) ;
#48 = LOCAL_TIME ( 8, 47, 31.00000000000000000, #83 ) ;
#49 = CC_DESIGN_DATE_AND_TIME_ASSIGNMENT ( #170, #105, ( #123 ) ) ;
#50 = CALENDAR_DATE ( 2021, 12, 11 ) ;
#51 = CALENDAR_DATE ( 2021, 12, 11 ) ;
#52 = CARTESIAN_POINT ( 'NONE',  ( 0.0000000000000000000, 0.0000000000000000000, 0.0000000000000000000 ) ) ;
#53 = ADVANCED_FACE ( 'NONE', ( #124, #209 ), #107, .T. ) ;
#54 = EDGE_LOOP ( 'NONE', ( #89 ) ) ;
#55 = ORIENTED_EDGE ( 'NONE', *, *, #174, .F. ) ;
#56 = CARTESIAN_POINT ( 'NONE',  ( 0.0000000000000000000, 0.0000000000000000000, 0.0000000000000000000 ) ) ;
#57 = APPROVAL ( #136, 'UNSPECIFIED' ) ;
#58 = AXIS2_PLACEMENT_3D ( 'NONE', #160, #77, #76 ) ;
#59 = DIRECTION ( 'NONE',  ( -3.491481338843133355E-15, 1.224646799147353207E-16, -1.000000000000000000 ) ) ;
#60 = EDGE_LOOP ( 'NONE', ( #39 ) ) ;
#61 = CC_DESIGN_PERSON_AND_ORGANIZATION_ASSIGNMENT ( #206, #222, ( #135 ) ) ;
#62 = CARTESIAN_POINT ( 'NONE',  ( -1.004820389785785246E-30, 3.524435489255365378E-32, -2.877919977996279827E-16 ) ) ;
#63 = FACE_OUTER_BOUND ( 'NONE', #192, .T. ) ;
#64 = DIRECTION ( 'NONE',  ( 0.0000000000000000000, 1.000000000000000000, 0.0000000000000000000 ) ) ;
#65 = DIRECTION ( 'NONE',  ( 3.491481338843133355E-15, -1.224646799147353207E-16, 1.000000000000000000 ) ) ;
#66 = CC_DESIGN_PERSON_AND_ORGANIZATION_ASSIGNMENT ( #70, #201, ( #25 ) ) ;
#67 = CARTESIAN_POINT ( 'NONE',  ( -5.024101948928926231E-31, 1.762217744627682689E-32, -1.438959988998139914E-16 ) ) ;
#68 = APPROVAL_STATUS ( 'not_yet_approved' ) ;
#69 = CALENDAR_DATE ( 2021, 12, 11 ) ;
#70 = PERSON_AND_ORGANIZATION ( #118, #142 ) ;
#71 = PERSON_AND_ORGANIZATION ( #118, #142 ) ;
#72 = COORDINATED_UNIVERSAL_TIME_OFFSET ( 1, 0, .AHEAD. ) ;
#73 = AXIS2_PLACEMENT_3D ( 'NONE', #62, #132, #116 ) ;
#74 = APPLICATION_CONTEXT ( 'configuration controlled 3d designs of mechanical parts and assemblies' ) ;
#75 = ORIENTED_EDGE ( 'NONE', *, *, #187, .T. ) ;
#76 = DIRECTION ( 'NONE',  ( -4.275831445896958607E-31, -1.000000000000000000, -1.224646799147353207E-16 ) ) ;
#77 = DIRECTION ( 'NONE',  ( 3.491481338843133355E-15, -1.224646799147353207E-16, 1.000000000000000000 ) ) ;
#78 = DIRECTION ( 'NONE',  ( 4.275831445896958607E-31, 1.000000000000000000, 1.224646799147353207E-16 ) ) ;
#79 = CARTESIAN_POINT ( 'NONE',  ( 6.284666409917640040E-14, -2.204364238465235428E-15, 18.00000000000000000 ) ) ;
#80 = FACE_OUTER_BOUND ( 'NONE', #91, .T. ) ;
#81 = APPROVAL_DATE_TIME ( #85, #57 ) ;
#82 = ADVANCED_FACE ( 'NONE', ( #40, #80 ), #115, .T. ) ;
#83 = COORDINATED_UNIVERSAL_TIME_OFFSET ( 1, 0, .AHEAD. ) ;
#84 = COORDINATED_UNIVERSAL_TIME_OFFSET ( 1, 0, .AHEAD. ) ;
#85 = DATE_AND_TIME ( #50, #48 ) ;
#86 = MANIFOLD_SOLID_BREP ( 'Corps-Déplacer/Copier1[1]', #159 ) ;
#87 = APPROVAL_ROLE ( '' ) ;
#88 = APPROVAL ( #68, 'UNSPECIFIED' ) ;
#89 = ORIENTED_EDGE ( 'NONE', *, *, #187, .F. ) ;
#90 = CARTESIAN_POINT ( 'NONE',  ( -1.004820389785785246E-30, 3.524435489255365378E-32, -2.877919977996279827E-16 ) ) ;
#91 = EDGE_LOOP ( 'NONE', ( #208 ) ) ;
#92 = CIRCLE ( 'NONE', #183, 1.999999999999998668 ) ;
#93 = CARTESIAN_POINT ( 'NONE',  ( 6.284666409917640040E-14, 2.499999999999997335, 18.00000000000000000 ) ) ;
#94 = DIRECTION ( 'NONE',  ( -3.491481338843133355E-15, 1.224646799147353207E-16, -1.000000000000000000 ) ) ;
#95 = CIRCLE ( 'NONE', #126, 2.499999999999999556 ) ;
#96 = PLANE ( 'NONE',  #103 ) ;
#97 = MANIFOLD_SOLID_BREP ( 'Corps-Déplacer/Copier1[2]', #193 ) ;
#98 = VERTEX_POINT ( 'NONE', #93 ) ;
#99 = PLANE ( 'NONE',  #184 ) ;
#100 = AXIS2_PLACEMENT_3D ( 'NONE', #52, #106, #157 ) ;
#101 = CALENDAR_DATE ( 2021, 12, 11 ) ;
#102 = COORDINATED_UNIVERSAL_TIME_OFFSET ( 1, 0, .AHEAD. ) ;
#103 = AXIS2_PLACEMENT_3D ( 'NONE', #67, #128, #147 ) ;
#104 = CC_DESIGN_PERSON_AND_ORGANIZATION_ASSIGNMENT ( #71, #205, ( #123 ) ) ;
#105 = DATE_TIME_ROLE ( 'creation_date' ) ;
#106 = DIRECTION ( 'NONE',  ( 0.0000000000000000000, 0.0000000000000000000, 1.000000000000000000 ) ) ;
#107 = CYLINDRICAL_SURFACE ( 'NONE', #221, 2.499999999999997780 ) ;
#108 = CC_DESIGN_SECURITY_CLASSIFICATION ( #25, ( #135 ) ) ;
#109 = EDGE_LOOP ( 'NONE', ( #191 ) ) ;
#110 = PRODUCT_RELATED_PRODUCT_CATEGORY ( 'detail', '', ( #140 ) ) ;
#111 = LOCAL_TIME ( 8, 47, 31.00000000000000000, #190 ) ;
#112 = EDGE_LOOP ( 'NONE', ( #4 ) ) ;
#113 = VERTEX_POINT ( 'NONE', #199 ) ;
#114 = CYLINDRICAL_SURFACE ( 'NONE', #212, 2.499999999999999556 ) ;
#115 = CONICAL_SURFACE ( 'NONE', #26, 2.499999999999995559, 0.7853981633974447263 ) ;
#116 = DIRECTION ( 'NONE',  ( 4.275831445896958607E-31, 1.000000000000000000, 1.224646799147352961E-16 ) ) ;
#117 = DIRECTION ( 'NONE',  ( 0.0000000000000000000, 1.000000000000000000, 0.0000000000000000000 ) ) ;
#118 = PERSON ( 'UNSPECIFIED', 'UNSPECIFIED', 'UNSPECIFIED', ('UNSPECIFIED'), ('UNSPECIFIED'), ('UNSPECIFIED') ) ;
#119 = AXIS2_PLACEMENT_3D ( 'NONE', #165, #28, #64 ) ;
#120 = PERSON_AND_ORGANIZATION_ROLE ( 'creator' ) ;
#121 = PERSON_AND_ORGANIZATION ( #118, #142 ) ;
#122 = DATE_AND_TIME ( #51, #111 ) ;
#123 = PRODUCT_DEFINITION ( 'UNKNOWN', '', #135, #131 ) ;
#124 = FACE_OUTER_BOUND ( 'NONE', #177, .T. ) ;
#125 = DIRECTION ( 'NONE',  ( -3.491481338843133355E-15, 1.224646799147353207E-16, -1.000000000000000000 ) ) ;
#126 = AXIS2_PLACEMENT_3D ( 'NONE', #148, #94, #24 ) ;
#127 = ORIENTED_EDGE ( 'NONE', *, *, #152, .F. ) ;
#128 = DIRECTION ( 'NONE',  ( -3.491481338843133355E-15, 1.224646799147353207E-16, -1.000000000000000000 ) ) ;
#129 = CARTESIAN_POINT ( 'NONE',  ( 6.284666409917640040E-14, 2.499999999999997335, 18.00000000000000000 ) ) ;
#130 = EDGE_CURVE ( 'NONE', #198, #198, #14, .T. ) ;
#131 = DESIGN_CONTEXT ( 'detailed design', #188, 'design' ) ;
#132 = DIRECTION ( 'NONE',  ( -3.491481338843133355E-15, 1.224646799147353207E-16, -1.000000000000000000 ) ) ;
#133 = CARTESIAN_POINT ( 'NONE',  ( 2.094888803305880013E-13, 1.999999999999991340, 60.00000000000000000 ) ) ;
#134 = APPROVAL_ROLE ( '' ) ;
#135 = PRODUCT_DEFINITION_FORMATION_WITH_SPECIFIED_SOURCE ( 'ANY', '', #140, .NOT_KNOWN. ) ;
#136 = APPROVAL_STATUS ( 'not_yet_approved' ) ;
#137 = APPROVAL ( #15, 'UNSPECIFIED' ) ;
#138 = CALENDAR_DATE ( 2021, 12, 11 ) ;
#139 = EDGE_LOOP ( 'NONE', ( #127 ) ) ;
#140 = PRODUCT ( '32486', '32486', '', ( #33 ) ) ;
#141 = PLANE ( 'NONE',  #153 ) ;
#142 = ORGANIZATION ( 'UNSPECIFIED', 'UNSPECIFIED', '' ) ;
#143 = CARTESIAN_POINT ( 'NONE',  ( 2.094888803305880013E-13, -7.347880794884118356E-15, 60.00000000000000000 ) ) ;
#144 = AXIS2_PLACEMENT_3D ( 'NONE', #79, #186, #182 ) ;
#145 = CC_DESIGN_DATE_AND_TIME_ASSIGNMENT ( #189, #154, ( #25 ) ) ;
#146 = DIRECTION ( 'NONE',  ( -4.275831445896958607E-31, -1.000000000000000000, -1.224646799147352961E-16 ) ) ;
#147 = DIRECTION ( 'NONE',  ( 4.275831445896958607E-31, 1.000000000000000000, 1.224646799147353207E-16 ) ) ;
#148 = CARTESIAN_POINT ( 'NONE',  ( 6.284666409917640040E-14, -2.204364238465235428E-15, 18.00000000000000000 ) ) ;
#149 = CARTESIAN_POINT ( 'NONE',  ( 0.0000000000000000000, 0.0000000000000000000, 0.0000000000000000000 ) ) ;
#150 = FACE_OUTER_BOUND ( 'NONE', #139, .T. ) ;
#151 = VERTEX_POINT ( 'NONE', #197 ) ;
#152 = EDGE_CURVE ( 'NONE', #98, #98, #95, .T. ) ;
#153 = AXIS2_PLACEMENT_3D ( 'NONE', #7, #59, #78 ) ;
#154 = DATE_TIME_ROLE ( 'classification_date' ) ;
#155 = PERSON_AND_ORGANIZATION ( #118, #142 ) ;
#156 = CC_DESIGN_APPROVAL ( #57, ( #123 ) ) ;
#157 = DIRECTION ( 'NONE',  ( 1.000000000000000000, 0.0000000000000000000, 0.0000000000000000000 ) ) ;
#158 = APPROVAL_DATE_TIME ( #204, #137 ) ;
#159 = CLOSED_SHELL ( 'NONE', ( #6, #53, #82, #46 ) ) ;
#160 = CARTESIAN_POINT ( 'NONE',  ( 6.284666409917640040E-14, 1.874699728327318726E-32, 18.00000000000000000 ) ) ;
#161 = ADVANCED_FACE ( 'NONE', ( #181, #30 ), #114, .T. ) ;
#162 = AXIS2_PLACEMENT_3D ( 'NONE', #90, #163, #146 ) ;
#163 = DIRECTION ( 'NONE',  ( 3.491481338843133355E-15, -1.224646799147353207E-16, 1.000000000000000000 ) ) ;
#164 = ADVANCED_FACE ( 'NONE', ( #150 ), #99, .T. ) ;
#165 = CARTESIAN_POINT ( 'NONE',  ( 2.077431396611664157E-13, -7.286648454926750781E-15, 59.50000000000000000 ) ) ;
#166 = VERTEX_POINT ( 'NONE', #11 ) ;
#167 =( LENGTH_UNIT ( ) NAMED_UNIT ( * ) SI_UNIT ( .MILLI., .METRE. ) );
#168 = EDGE_CURVE ( 'NONE', #113, #113, #207, .T. ) ;
#169 = CARTESIAN_POINT ( 'NONE',  ( 5.237222008264689186E-16, -1.836970198721026051E-17, 0.1499999999999996891 ) ) ;
#170 = DATE_AND_TIME ( #69, #1 ) ;
#171 = APPROVAL_PERSON_ORGANIZATION ( #172, #137, #87 ) ;
#172 = PERSON_AND_ORGANIZATION ( #118, #142 ) ;
#173 = APPROVAL_ROLE ( '' ) ;
#174 = EDGE_CURVE ( 'NONE', #151, #151, #179, .T. ) ;
#175 = DIRECTION ( 'NONE',  ( -3.491481338843133355E-15, 1.224646799147353207E-16, -1.000000000000000000 ) ) ;
#176 = CC_DESIGN_APPROVAL ( #137, ( #25 ) ) ;
#177 = EDGE_LOOP ( 'NONE', ( #17 ) ) ;
#178 = EDGE_LOOP ( 'NONE', ( #55 ) ) ;
#179 = CIRCLE ( 'NONE', #203, 2.500000000000000000 ) ;
#180 = DIRECTION ( 'NONE',  ( 0.0000000000000000000, 1.000000000000000000, 0.0000000000000000000 ) ) ;
#181 = FACE_OUTER_BOUND ( 'NONE', #60, .T. ) ;
#182 = DIRECTION ( 'NONE',  ( 0.0000000000000000000, 1.000000000000000000, 0.0000000000000000000 ) ) ;
#183 = AXIS2_PLACEMENT_3D ( 'NONE', #143, #125, #180 ) ;
#184 = AXIS2_PLACEMENT_3D ( 'NONE', #43, #65, #22 ) ;
#185 = ADVANCED_FACE ( 'NONE', ( #63 ), #96, .T. ) ;
#186 = DIRECTION ( 'NONE',  ( -3.491481338843133355E-15, 1.224646799147353207E-16, -1.000000000000000000 ) ) ;
#187 = EDGE_CURVE ( 'NONE', #166, #166, #196, .T. ) ;
#188 = APPLICATION_CONTEXT ( 'configuration controlled 3d designs of mechanical parts and assemblies' ) ;
#189 = DATE_AND_TIME ( #101, #210 ) ;
#190 = COORDINATED_UNIVERSAL_TIME_OFFSET ( 1, 0, .AHEAD. ) ;
#191 = ORIENTED_EDGE ( 'NONE', *, *, #174, .T. ) ;
#192 = EDGE_LOOP ( 'NONE', ( #75 ) ) ;
#193 = CLOSED_SHELL ( 'NONE', ( #185, #13, #161, #164 ) ) ;
#194 = DIRECTION ( 'NONE',  ( 4.275831445896959482E-31, 1.000000000000000000, 1.224646799147353454E-16 ) ) ;
#195 = EDGE_LOOP ( 'NONE', ( #18 ) ) ;
#196 = CIRCLE ( 'NONE', #73, 2.350000000000000089 ) ;
#197 = CARTESIAN_POINT ( 'NONE',  ( 5.237222008264699047E-16, 2.500000000000000000, 0.1499999999999999944 ) ) ;
#198 = VERTEX_POINT ( 'NONE', #129 ) ;
#199 = CARTESIAN_POINT ( 'NONE',  ( 2.077431396611664157E-13, 2.499999999999988454, 59.50000000000000000 ) ) ;
#200 =( NAMED_UNIT ( * ) SI_UNIT ( $, .STERADIAN. ) SOLID_ANGLE_UNIT ( ) );
#201 = PERSON_AND_ORGANIZATION_ROLE ( 'classification_officer' ) ;
#202 = PERSON_AND_ORGANIZATION ( #118, #142 ) ;
#203 = AXIS2_PLACEMENT_3D ( 'NONE', #169, #216, #42 ) ;
#204 = DATE_AND_TIME ( #138, #16 ) ;
#205 = PERSON_AND_ORGANIZATION_ROLE ( 'creator' ) ;
#206 = PERSON_AND_ORGANIZATION ( #118, #142 ) ;
#207 = CIRCLE ( 'NONE', #119, 2.499999999999995559 ) ;
#208 = ORIENTED_EDGE ( 'NONE', *, *, #168, .F. ) ;
#209 = FACE_OUTER_BOUND ( 'NONE', #2, .T. ) ;
#210 = LOCAL_TIME ( 8, 47, 31.00000000000000000, #72 ) ;
#211 = PRODUCT_DEFINITION_SHAPE ( 'NONE', 'NONE',  #123 ) ;
#212 = AXIS2_PLACEMENT_3D ( 'NONE', #149, #27, #218 ) ;
#213 = EDGE_LOOP ( 'NONE', ( #38 ) ) ;
#214 = FACE_OUTER_BOUND ( 'NONE', #112, .T. ) ;
#215 =( NAMED_UNIT ( * ) PLANE_ANGLE_UNIT ( ) SI_UNIT ( $, .RADIAN. ) );
#216 = DIRECTION ( 'NONE',  ( -3.491481338843133355E-15, 1.224646799147353207E-16, -1.000000000000000000 ) ) ;
#217 = CC_DESIGN_PERSON_AND_ORGANIZATION_ASSIGNMENT ( #121, #120, ( #135 ) ) ;
#218 = DIRECTION ( 'NONE',  ( 4.275831445896958607E-31, 1.000000000000000000, 1.224646799147353207E-16 ) ) ;
#219 = CARTESIAN_POINT ( 'NONE',  ( 2.077431396611664157E-13, -7.286648454926750781E-15, 59.50000000000000000 ) ) ;
#220 = SHAPE_DEFINITION_REPRESENTATION ( #211, #29 ) ;
#221 = AXIS2_PLACEMENT_3D ( 'NONE', #56, #175, #194 ) ;
#222 = PERSON_AND_ORGANIZATION_ROLE ( 'design_supplier' ) ;
#223 = PERSON_AND_ORGANIZATION ( #118, #142 ) ;
ENDSEC;
END-ISO-10303-21;
