ISO-10303-21;
HEADER;
FILE_DESCRIPTION (( 'STEP AP203' ),
    '1' );
FILE_NAME ('32485.step',
    '2021-11-12T07:47:30',
    ( '' ),
    ( '' ),
    'SwSTEP 2.0',
    'SolidWorks 2019',
    '' );
FILE_SCHEMA (( 'CONFIG_CONTROL_DESIGN' ));
ENDSEC;

DATA;
#1 = PLANE ( 'NONE',  #189 ) ;
#2 = DIRECTION ( 'NONE',  ( 0.0000000000000000000, 1.000000000000000000, 0.0000000000000000000 ) ) ;
#3 = AXIS2_PLACEMENT_3D ( 'NONE', #174, #106, #171 ) ;
#4 = PERSON_AND_ORGANIZATION ( #49, #195 ) ;
#5 = DATE_AND_TIME ( #194, #46 ) ;
#6 = ADVANCED_BREP_SHAPE_REPRESENTATION ( '32485', ( #166, #21, #163 ), #141 ) ;
#7 = CARTESIAN_POINT ( 'NONE',  ( 0.0000000000000000000, 0.0000000000000000000, 0.0000000000000000000 ) ) ;
#8 = PERSON_AND_ORGANIZATION_ROLE ( 'design_supplier' ) ;
#9 = VERTEX_POINT ( 'NONE', #149 ) ;
#10 = EDGE_LOOP ( 'NONE', ( #167 ) ) ;
#11 = CC_DESIGN_APPROVAL ( #59, ( #118 ) ) ;
#12 = ORIENTED_EDGE ( 'NONE', *, *, #126, .T. ) ;
#13 = DIRECTION ( 'NONE',  ( 4.275831445896958607E-31, 1.000000000000000000, 1.224646799147353454E-16 ) ) ;
#14 = FACE_OUTER_BOUND ( 'NONE', #169, .T. ) ;
#15 = CC_DESIGN_PERSON_AND_ORGANIZATION_ASSIGNMENT ( #112, #8, ( #118 ) ) ;
#16 = FACE_OUTER_BOUND ( 'NONE', #218, .T. ) ;
#17 = AXIS2_PLACEMENT_3D ( 'NONE', #88, #37, #176 ) ;
#18 = DIRECTION ( 'NONE',  ( -4.275831445896958607E-31, -1.000000000000000000, -1.224646799147353207E-16 ) ) ;
#19 = CARTESIAN_POINT ( 'NONE',  ( 1.745740669421566678E-13, 1.199807826129476918E-32, 50.00000000000000000 ) ) ;
#20 = APPROVAL ( #120, 'UNSPECIFIED' ) ;
#21 = MANIFOLD_SOLID_BREP ( 'Corps-Déplacer/Copier1[2]', #156 ) ;
#22 = VERTEX_POINT ( 'NONE', #42 ) ;
#23 = CC_DESIGN_SECURITY_CLASSIFICATION ( #147, ( #118 ) ) ;
#24 = CALENDAR_DATE ( 2021, 12, 11 ) ;
#25 =( LENGTH_UNIT ( ) NAMED_UNIT ( * ) SI_UNIT ( .MILLI., .METRE. ) );
#26 = EDGE_CURVE ( 'NONE', #91, #91, #219, .T. ) ;
#27 = CALENDAR_DATE ( 2021, 12, 11 ) ;
#28 = APPLICATION_PROTOCOL_DEFINITION ( 'international standard', 'config_control_design', 1994, #65 ) ;
#29 = CC_DESIGN_DATE_AND_TIME_ASSIGNMENT ( #179, #81, ( #103 ) ) ;
#30 = EDGE_LOOP ( 'NONE', ( #184 ) ) ;
#31 = PERSON_AND_ORGANIZATION ( #49, #195 ) ;
#32 = ADVANCED_FACE ( 'NONE', ( #124 ), #129, .T. ) ;
#33 = EDGE_LOOP ( 'NONE', ( #102 ) ) ;
#34 = APPROVAL_PERSON_ORGANIZATION ( #31, #20, #151 ) ;
#35 = DIRECTION ( 'NONE',  ( -3.491481338843133355E-15, 1.224646799147353207E-16, -1.000000000000000000 ) ) ;
#36 = PLANE ( 'NONE',  #80 ) ;
#37 = DIRECTION ( 'NONE',  ( -3.491481338843133355E-15, 1.224646799147353207E-16, -1.000000000000000000 ) ) ;
#38 = DIRECTION ( 'NONE',  ( 0.0000000000000000000, 1.000000000000000000, 0.0000000000000000000 ) ) ;
#39 = AXIS2_PLACEMENT_3D ( 'NONE', #148, #159, #177 ) ;
#40 = DIRECTION ( 'NONE',  ( 0.0000000000000000000, 1.000000000000000000, 0.0000000000000000000 ) ) ;
#41 = PERSON_AND_ORGANIZATION ( #49, #195 ) ;
#42 = CARTESIAN_POINT ( 'NONE',  ( 1.710569414459005214E-46, 1.850000000000000089, 0.0000000000000000000 ) ) ;
#43 = LOCAL_TIME ( 8, 47, 30.00000000000000000, #78 ) ;
#44 = CC_DESIGN_PERSON_AND_ORGANIZATION_ASSIGNMENT ( #41, #98, ( #118 ) ) ;
#45 = PERSON_AND_ORGANIZATION ( #49, #195 ) ;
#46 = LOCAL_TIME ( 8, 47, 30.00000000000000000, #212 ) ;
#47 = CC_DESIGN_PERSON_AND_ORGANIZATION_ASSIGNMENT ( #150, #60, ( #147 ) ) ;
#48 = EDGE_LOOP ( 'NONE', ( #138 ) ) ;
#49 = PERSON ( 'UNSPECIFIED', 'UNSPECIFIED', 'UNSPECIFIED', ('UNSPECIFIED'), ('UNSPECIFIED'), ('UNSPECIFIED') ) ;
#50 = AXIS2_PLACEMENT_3D ( 'NONE', #186, #160, #18 ) ;
#51 = ADVANCED_FACE ( 'NONE', ( #140 ), #36, .T. ) ;
#52 = COORDINATED_UNIVERSAL_TIME_OFFSET ( 1, 0, .AHEAD. ) ;
#53 = ORIENTED_EDGE ( 'NONE', *, *, #200, .F. ) ;
#54 = DIRECTION ( 'NONE',  ( -3.491481338843133355E-15, 1.224646799147353207E-16, -1.000000000000000000 ) ) ;
#55 = CARTESIAN_POINT ( 'NONE',  ( 5.586370142149013368E-14, 1.999999999999998224, 16.00000000000000000 ) ) ;
#56 = PLANE ( 'NONE',  #50 ) ;
#57 = DIRECTION ( 'NONE',  ( 3.491481338843133355E-15, -1.224646799147353207E-16, 1.000000000000000000 ) ) ;
#58 = AXIS2_PLACEMENT_3D ( 'NONE', #196, #216, #66 ) ;
#59 = APPROVAL ( #162, 'UNSPECIFIED' ) ;
#60 = PERSON_AND_ORGANIZATION_ROLE ( 'classification_officer' ) ;
#61 = APPROVAL_DATE_TIME ( #116, #59 ) ;
#62 = ADVANCED_FACE ( 'NONE', ( #221 ), #56, .F. ) ;
#63 = APPROVAL_ROLE ( '' ) ;
#64 = CIRCLE ( 'NONE', #109, 1.850000000000000089 ) ;
#65 = APPLICATION_CONTEXT ( 'configuration controlled 3d designs of mechanical parts and assemblies' ) ;
#66 = DIRECTION ( 'NONE',  ( 4.333342374871280669E-31, 1.000000000000000000, 1.219727444046192488E-16 ) ) ;
#67 = DATE_TIME_ROLE ( 'classification_date' ) ;
#68 = CC_DESIGN_APPROVAL ( #83, ( #103 ) ) ;
#69 = ORIENTED_EDGE ( 'NONE', *, *, #213, .F. ) ;
#70 = FACE_BOUND ( 'NONE', #86, .T. ) ;
#71 = AXIS2_PLACEMENT_3D ( 'NONE', #110, #145, #13 ) ;
#72 = FACE_OUTER_BOUND ( 'NONE', #33, .T. ) ;
#73 = VERTEX_POINT ( 'NONE', #223 ) ;
#74 = FACE_OUTER_BOUND ( 'NONE', #201, .T. ) ;
#75 = DIRECTION ( 'NONE',  ( -3.491481338843133355E-15, 1.224646799147353207E-16, -1.000000000000000000 ) ) ;
#76 = CIRCLE ( 'NONE', #137, 1.599999999999999867 ) ;
#77 = COORDINATED_UNIVERSAL_TIME_OFFSET ( 1, 0, .AHEAD. ) ;
#78 = COORDINATED_UNIVERSAL_TIME_OFFSET ( 1, 0, .AHEAD. ) ;
#79 = MECHANICAL_CONTEXT ( 'NONE', #65, 'mechanical' ) ;
#80 = AXIS2_PLACEMENT_3D ( 'NONE', #222, #158, #185 ) ;
#81 = DATE_TIME_ROLE ( 'creation_date' ) ;
#82 =( NAMED_UNIT ( * ) SI_UNIT ( $, .STERADIAN. ) SOLID_ANGLE_UNIT ( ) );
#83 = APPROVAL ( #131, 'UNSPECIFIED' ) ;
#84 = APPROVAL_DATE_TIME ( #100, #20 ) ;
#85 = CIRCLE ( 'NONE', #182, 2.000000000000000444 ) ;
#86 = EDGE_LOOP ( 'NONE', ( #199 ) ) ;
#87 = EDGE_CURVE ( 'NONE', #202, #202, #211, .T. ) ;
#88 = CARTESIAN_POINT ( 'NONE',  ( 1.731774744066194397E-13, -6.074248123770872657E-15, 49.60000000000000853 ) ) ;
#89 = DIRECTION ( 'NONE',  ( 4.275831445896958607E-31, 1.000000000000000000, 1.224646799147353207E-16 ) ) ;
#90 = LOCAL_TIME ( 8, 47, 30.00000000000000000, #77 ) ;
#91 = VERTEX_POINT ( 'NONE', #111 ) ;
#92 = DIRECTION ( 'NONE',  ( 0.0000000000000000000, 1.000000000000000000, 0.0000000000000000000 ) ) ;
#93 = CARTESIAN_POINT ( 'NONE',  ( 5.586370142149013368E-14, -1.959434878635765131E-15, 16.00000000000000000 ) ) ;
#94 = SECURITY_CLASSIFICATION_LEVEL ( 'unclassified' ) ;
#95 = APPROVAL_PERSON_ORGANIZATION ( #133, #59, #193 ) ;
#96 = PRODUCT_RELATED_PRODUCT_CATEGORY ( 'detail', '', ( #207 ) ) ;
#97 =( NAMED_UNIT ( * ) PLANE_ANGLE_UNIT ( ) SI_UNIT ( $, .RADIAN. ) );
#98 = PERSON_AND_ORGANIZATION_ROLE ( 'creator' ) ;
#99 = PERSON_AND_ORGANIZATION ( #49, #195 ) ;
#100 = DATE_AND_TIME ( #197, #123 ) ;
#101 = UNCERTAINTY_MEASURE_WITH_UNIT (LENGTH_MEASURE( 1.000000000000000082E-05 ), #25, 'distance_accuracy_value', 'NONE');
#102 = ORIENTED_EDGE ( 'NONE', *, *, #87, .T. ) ;
#103 = PRODUCT_DEFINITION ( 'UNKNOWN', '', #118, #135 ) ;
#104 = EDGE_LOOP ( 'NONE', ( #136 ) ) ;
#105 = CIRCLE ( 'NONE', #198, 2.000000000000000888 ) ;
#106 = DIRECTION ( 'NONE',  ( -3.491481338843133355E-15, 1.224646799147353207E-16, -1.000000000000000000 ) ) ;
#107 = CARTESIAN_POINT ( 'NONE',  ( 1.731774744066194397E-13, -6.074248123770872657E-15, 49.60000000000000853 ) ) ;
#108 = CARTESIAN_POINT ( 'NONE',  ( -7.910288174909372284E-31, 2.774555597924436574E-32, -2.265596578422603100E-16 ) ) ;
#109 = AXIS2_PLACEMENT_3D ( 'NONE', #187, #54, #144 ) ;
#110 = CARTESIAN_POINT ( 'NONE',  ( 0.0000000000000000000, 0.0000000000000000000, 0.0000000000000000000 ) ) ;
#111 = CARTESIAN_POINT ( 'NONE',  ( 5.237222008264699047E-16, 2.000000000000000000, 0.1499999999999999944 ) ) ;
#112 = PERSON_AND_ORGANIZATION ( #49, #195 ) ;
#113 = DIRECTION ( 'NONE',  ( 1.000000000000000000, 0.0000000000000000000, 0.0000000000000000000 ) ) ;
#114 = CONICAL_SURFACE ( 'NONE', #214, 1.850000000000000089, 0.7853981633974482790 ) ;
#115 = APPLICATION_PROTOCOL_DEFINITION ( 'international standard', 'config_control_design', 1994, #157 ) ;
#116 = DATE_AND_TIME ( #24, #43 ) ;
#117 = VERTEX_POINT ( 'NONE', #132 ) ;
#118 = PRODUCT_DEFINITION_FORMATION_WITH_SPECIFIED_SOURCE ( 'ANY', '', #207, .NOT_KNOWN. ) ;
#119 = ADVANCED_FACE ( 'NONE', ( #188 ), #1, .F. ) ;
#120 = APPROVAL_STATUS ( 'not_yet_approved' ) ;
#121 = ORIENTED_EDGE ( 'NONE', *, *, #26, .F. ) ;
#122 = FACE_OUTER_BOUND ( 'NONE', #168, .T. ) ;
#123 = LOCAL_TIME ( 8, 47, 30.00000000000000000, #52 ) ;
#124 = FACE_OUTER_BOUND ( 'NONE', #10, .T. ) ;
#125 = DIRECTION ( 'NONE',  ( -3.491481338843133355E-15, 1.224646799147353207E-16, -1.000000000000000000 ) ) ;
#126 = EDGE_CURVE ( 'NONE', #73, #73, #105, .T. ) ;
#127 = DIRECTION ( 'NONE',  ( -3.491481338843133355E-15, 1.224646799147353207E-16, -1.000000000000000000 ) ) ;
#128 = CONICAL_SURFACE ( 'NONE', #17, 2.000000000000000888, 0.7853981633974526089 ) ;
#129 = PLANE ( 'NONE',  #39 ) ;
#130 = EDGE_CURVE ( 'NONE', #22, #22, #64, .T. ) ;
#131 = APPROVAL_STATUS ( 'not_yet_approved' ) ;
#132 = CARTESIAN_POINT ( 'NONE',  ( 5.586370142149013368E-14, 1.999999999999998224, 16.00000000000000000 ) ) ;
#133 = PERSON_AND_ORGANIZATION ( #49, #195 ) ;
#134 = LOCAL_TIME ( 8, 47, 30.00000000000000000, #161 ) ;
#135 = DESIGN_CONTEXT ( 'detailed design', #157, 'design' ) ;
#136 = ORIENTED_EDGE ( 'NONE', *, *, #87, .F. ) ;
#137 = AXIS2_PLACEMENT_3D ( 'NONE', #155, #75, #40 ) ;
#138 = ORIENTED_EDGE ( 'NONE', *, *, #200, .T. ) ;
#139 = ORIENTED_EDGE ( 'NONE', *, *, #26, .T. ) ;
#140 = FACE_OUTER_BOUND ( 'NONE', #104, .T. ) ;
#141 =( GEOMETRIC_REPRESENTATION_CONTEXT ( 3 ) GLOBAL_UNCERTAINTY_ASSIGNED_CONTEXT ( ( #101 ) ) GLOBAL_UNIT_ASSIGNED_CONTEXT ( ( #25, #97, #82 ) ) REPRESENTATION_CONTEXT ( 'NONE', 'WORKASPACE' ) );
#142 = FACE_OUTER_BOUND ( 'NONE', #220, .T. ) ;
#143 = ADVANCED_FACE ( 'NONE', ( #74, #122 ), #154, .T. ) ;
#144 = DIRECTION ( 'NONE',  ( 4.275831445896958607E-31, 1.000000000000000000, 1.224646799147352961E-16 ) ) ;
#145 = DIRECTION ( 'NONE',  ( -3.491481338843133355E-15, 1.224646799147353207E-16, -1.000000000000000000 ) ) ;
#146 = PRODUCT_DEFINITION_SHAPE ( 'NONE', 'NONE',  #103 ) ;
#147 = SECURITY_CLASSIFICATION ( '', '', #94 ) ;
#148 = CARTESIAN_POINT ( 'NONE',  ( -3.955144087454686142E-31, 1.387277798962218287E-32, -1.132798289211301550E-16 ) ) ;
#149 = CARTESIAN_POINT ( 'NONE',  ( 1.745740669421566678E-13, 1.599999999999993872, 50.00000000000000000 ) ) ;
#150 = PERSON_AND_ORGANIZATION ( #49, #195 ) ;
#151 = APPROVAL_ROLE ( '' ) ;
#152 = EDGE_LOOP ( 'NONE', ( #69 ) ) ;
#153 = ORIENTED_EDGE ( 'NONE', *, *, #126, .F. ) ;
#154 = CYLINDRICAL_SURFACE ( 'NONE', #71, 2.000000000000000888 ) ;
#155 = CARTESIAN_POINT ( 'NONE',  ( 1.745740669421566678E-13, -6.123233995736766085E-15, 50.00000000000000000 ) ) ;
#156 = CLOSED_SHELL ( 'NONE', ( #32, #205, #217, #51 ) ) ;
#157 = APPLICATION_CONTEXT ( 'configuration controlled 3d designs of mechanical parts and assemblies' ) ;
#158 = DIRECTION ( 'NONE',  ( 3.491481338843133355E-15, -1.224646799147353207E-16, 1.000000000000000000 ) ) ;
#159 = DIRECTION ( 'NONE',  ( -3.491481338843133355E-15, 1.224646799147353207E-16, -1.000000000000000000 ) ) ;
#160 = DIRECTION ( 'NONE',  ( 3.491481338843133355E-15, -1.224646799147353207E-16, 1.000000000000000000 ) ) ;
#161 = COORDINATED_UNIVERSAL_TIME_OFFSET ( 1, 0, .AHEAD. ) ;
#162 = APPROVAL_STATUS ( 'not_yet_approved' ) ;
#163 = AXIS2_PLACEMENT_3D ( 'NONE', #7, #181, #113 ) ;
#164 = PERSON_AND_ORGANIZATION_ROLE ( 'design_owner' ) ;
#165 = CC_DESIGN_PERSON_AND_ORGANIZATION_ASSIGNMENT ( #99, #164, ( #207 ) ) ;
#166 = MANIFOLD_SOLID_BREP ( 'Corps-Déplacer/Copier1[1]', #175 ) ;
#167 = ORIENTED_EDGE ( 'NONE', *, *, #130, .T. ) ;
#168 = EDGE_LOOP ( 'NONE', ( #53 ) ) ;
#169 = EDGE_LOOP ( 'NONE', ( #153 ) ) ;
#170 = CC_DESIGN_APPROVAL ( #20, ( #147 ) ) ;
#171 = DIRECTION ( 'NONE',  ( 4.275831445896958607E-31, 1.000000000000000000, 1.224646799147353207E-16 ) ) ;
#172 = CC_DESIGN_DATE_AND_TIME_ASSIGNMENT ( #5, #67, ( #147 ) ) ;
#173 = DIRECTION ( 'NONE',  ( -3.491481338843133355E-15, 1.224646799147353207E-16, -1.000000000000000000 ) ) ;
#174 = CARTESIAN_POINT ( 'NONE',  ( 0.0000000000000000000, 0.0000000000000000000, 0.0000000000000000000 ) ) ;
#175 = CLOSED_SHELL ( 'NONE', ( #62, #143, #178, #119 ) ) ;
#176 = DIRECTION ( 'NONE',  ( 0.0000000000000000000, 1.000000000000000000, 0.0000000000000000000 ) ) ;
#177 = DIRECTION ( 'NONE',  ( 4.275831445896958607E-31, 1.000000000000000000, 1.224646799147353207E-16 ) ) ;
#178 = ADVANCED_FACE ( 'NONE', ( #206, #14 ), #128, .T. ) ;
#179 = DATE_AND_TIME ( #27, #90 ) ;
#180 = CALENDAR_DATE ( 2021, 12, 11 ) ;
#181 = DIRECTION ( 'NONE',  ( 0.0000000000000000000, 0.0000000000000000000, 1.000000000000000000 ) ) ;
#182 = AXIS2_PLACEMENT_3D ( 'NONE', #93, #35, #2 ) ;
#183 = CC_DESIGN_PERSON_AND_ORGANIZATION_ASSIGNMENT ( #45, #191, ( #103 ) ) ;
#184 = ORIENTED_EDGE ( 'NONE', *, *, #213, .T. ) ;
#185 = DIRECTION ( 'NONE',  ( -4.275831445896958607E-31, -1.000000000000000000, -1.224646799147353207E-16 ) ) ;
#186 = CARTESIAN_POINT ( 'NONE',  ( 5.586370142149013368E-14, 1.499759782661855418E-32, 16.00000000000000000 ) ) ;
#187 = CARTESIAN_POINT ( 'NONE',  ( -7.910288174909372284E-31, 2.774555597924436574E-32, -2.265596578422603100E-16 ) ) ;
#188 = FACE_OUTER_BOUND ( 'NONE', #152, .T. ) ;
#189 = AXIS2_PLACEMENT_3D ( 'NONE', #19, #127, #89 ) ;
#190 = DIRECTION ( 'NONE',  ( -4.275831445896959482E-31, -1.000000000000000000, -1.224646799147352961E-16 ) ) ;
#191 = PERSON_AND_ORGANIZATION_ROLE ( 'creator' ) ;
#192 = AXIS2_PLACEMENT_3D ( 'NONE', #204, #125, #38 ) ;
#193 = APPROVAL_ROLE ( '' ) ;
#194 = CALENDAR_DATE ( 2021, 12, 11 ) ;
#195 = ORGANIZATION ( 'UNSPECIFIED', 'UNSPECIFIED', '' ) ;
#196 = CARTESIAN_POINT ( 'NONE',  ( 5.237222008264691158E-16, -1.836970198721026668E-17, 0.1499999999999997446 ) ) ;
#197 = CALENDAR_DATE ( 2021, 12, 11 ) ;
#198 = AXIS2_PLACEMENT_3D ( 'NONE', #107, #173, #92 ) ;
#199 = ORIENTED_EDGE ( 'NONE', *, *, #130, .F. ) ;
#200 = EDGE_CURVE ( 'NONE', #117, #117, #85, .T. ) ;
#201 = EDGE_LOOP ( 'NONE', ( #12 ) ) ;
#202 = VERTEX_POINT ( 'NONE', #55 ) ;
#203 = CYLINDRICAL_SURFACE ( 'NONE', #3, 2.000000000000000000 ) ;
#204 = CARTESIAN_POINT ( 'NONE',  ( 5.586370142149013368E-14, -1.959434878635765131E-15, 16.00000000000000000 ) ) ;
#205 = ADVANCED_FACE ( 'NONE', ( #16, #70 ), #114, .T. ) ;
#206 = FACE_BOUND ( 'NONE', #30, .T. ) ;
#207 = PRODUCT ( '32485', '32485', '', ( #79 ) ) ;
#208 = APPROVAL_PERSON_ORGANIZATION ( #4, #83, #63 ) ;
#209 = APPROVAL_DATE_TIME ( #210, #83 ) ;
#210 = DATE_AND_TIME ( #180, #134 ) ;
#211 = CIRCLE ( 'NONE', #192, 2.000000000000000444 ) ;
#212 = COORDINATED_UNIVERSAL_TIME_OFFSET ( 1, 0, .AHEAD. ) ;
#213 = EDGE_CURVE ( 'NONE', #9, #9, #76, .T. ) ;
#214 = AXIS2_PLACEMENT_3D ( 'NONE', #108, #57, #190 ) ;
#215 = SHAPE_DEFINITION_REPRESENTATION ( #146, #6 ) ;
#216 = DIRECTION ( 'NONE',  ( -3.491481338843133355E-15, 1.224646799147353207E-16, -1.000000000000000000 ) ) ;
#217 = ADVANCED_FACE ( 'NONE', ( #72, #142 ), #203, .T. ) ;
#218 = EDGE_LOOP ( 'NONE', ( #139 ) ) ;
#219 = CIRCLE ( 'NONE', #58, 2.000000000000000000 ) ;
#220 = EDGE_LOOP ( 'NONE', ( #121 ) ) ;
#221 = FACE_OUTER_BOUND ( 'NONE', #48, .T. ) ;
#222 = CARTESIAN_POINT ( 'NONE',  ( 5.586370142149013368E-14, 1.499759782661855418E-32, 16.00000000000000000 ) ) ;
#223 = CARTESIAN_POINT ( 'NONE',  ( 1.731774744066194397E-13, 1.999999999999994893, 49.60000000000000853 ) ) ;
ENDSEC;
END-ISO-10303-21;
